  0
SECTION
  2
HEADER
  9
$ACADVER
  1
AC1015
  9
$ACADMAINTVER
 70
     6
  9
$DWGCODEPAGE
  3
ANSI_1252
  9
$INSBASE
 10
0.0
 20
0.0
 30
0.0
  9
$EXTMIN
 10
0.0
 20
0.0
 30
0.0
  9
$EXTMAX
 10
11.0
 20
8.5
 30
0.0
  9
$LIMMIN
 10
0.0
 20
0.0
  9
$LIMMAX
 10
11.0
 20
8.5
  9
$ORTHOMODE
 70
     0
  9
$REGENMODE
 70
     1
  9
$FILLMODE
 70
     1
  9
$QTEXTMODE
 70
     0
  9
$MIRRTEXT
 70
     1
  9
$LTSCALE
 40
1.0
  9
$ATTMODE
 70
     1
  9
$TEXTSIZE
 40
0.1666666667
  9
$TRACEWID
 40
0.05
  9
$TEXTSTYLE
  7
Standard
  9
$CLAYER
  8
0
  9
$CELTYPE
  6
ByLayer
  9
$CECOLOR
 62
   256
  9
$CELTSCALE
 40
1.0
  9
$DISPSILH
 70
     0
  9
$DIMSCALE
 40
1.0
  9
$DIMASZ
 40
0.09
  9
$DIMEXO
 40
0.05
  9
$DIMDLI
 40
0.38
  9
$DIMRND
 40
0.0
  9
$DIMDLE
 40
0.0
  9
$DIMEXE
 40
0.0625
  9
$DIMTP
 40
0.0
  9
$DIMTM
 40
0.0
  9
$DIMTXT
 40
0.1666666667
  9
$DIMCEN
 40
0.09
  9
$DIMTSZ
 40
0.0
  9
$DIMTOL
 70
     0
  9
$DIMLIM
 70
     0
  9
$DIMTIH
 70
     1
  9
$DIMTOH
 70
     1
  9
$DIMSE1
 70
     0
  9
$DIMSE2
 70
     0
  9
$DIMTAD
 70
     0
  9
$DIMZIN
 70
     0
  9
$DIMBLK
  1

  9
$DIMASO
 70
     1
  9
$DIMSHO
 70
     1
  9
$DIMPOST
  1

  9
$DIMAPOST
  1

  9
$DIMALT
 70
     0
  9
$DIMALTD
 70
     2
  9
$DIMALTF
 40
25.4
  9
$DIMLFAC
 40
1.0
  9
$DIMTOFL
 70
     0
  9
$DIMTVP
 40
0.0
  9
$DIMTIX
 70
     0
  9
$DIMSOXD
 70
     0
  9
$DIMSAH
 70
     0
  9
$DIMBLK1
  1

  9
$DIMBLK2
  1

  9
$DIMSTYLE
  2
Standard
  9
$DIMCLRD
 70
     0
  9
$DIMCLRE
 70
     0
  9
$DIMCLRT
 70
     0
  9
$DIMTFAC
 40
1.0
  9
$DIMGAP
 40
0.06
  9
$DIMJUST
 70
     0
  9
$DIMSD1
 70
     0
  9
$DIMSD2
 70
     0
  9
$DIMTOLJ
 70
     1
  9
$DIMTZIN
 70
     0
  9
$DIMALTZ
 70
     0
  9
$DIMALTTZ
 70
     0
  9
$DIMUPT
 70
     0
  9
$DIMDEC
 70
     2
  9
$DIMTDEC
 70
     2
  9
$DIMALTU
 70
     2
  9
$DIMALTTD
 70
     2
  9
$DIMTXSTY
  7
Standard
  9
$DIMAUNIT
 70
     0
  9
$DIMADEC
 70
     0
  9
$DIMALTRND
 40
0.0
  9
$DIMAZIN
 70
     0
  9
$DIMDSEP
 70
    46
  9
$DIMATFIT
 70
     3
  9
$DIMFRAC
 70
     0
  9
$DIMLDRBLK
  1

  9
$DIMLUNIT
 70
     2
  9
$DIMLWD
 70
    -2
  9
$DIMLWE
 70
    -2
  9
$DIMTMOVE
 70
     0
  9
$LUNITS
 70
     2
  9
$LUPREC
 70
     2
  9
$SKETCHINC
 40
0.1
  9
$FILLETRAD
 40
0.5
  9
$AUNITS
 70
     0
  9
$AUPREC
 70
     0
  9
$MENU
  1
.
  9
$ELEVATION
 40
0.0
  9
$PELEVATION
 40
0.0
  9
$THICKNESS
 40
0.0
  9
$LIMCHECK
 70
     0
  9
$CHAMFERA
 40
0.0
  9
$CHAMFERB
 40
0.0
  9
$CHAMFERC
 40
0.0
  9
$CHAMFERD
 40
0.0
  9
$SKPOLY
 70
     0
  9
$TDCREATE
 40
2456891.46727816
  9
$TDUCREATE
 40
2456891.675611493
  9
$TDUPDATE
 40
2456891.467278588
  9
$TDUUPDATE
 40
2456891.675611921
  9
$TDINDWG
 40
0.0000000116
  9
$TDUSRTIMER
 40
0.0000000116
  9
$USRTIMER
 70
     1
  9
$ANGBASE
 50
0.0
  9
$ANGDIR
 70
     0
  9
$PDMODE
 70
     0
  9
$PDSIZE
 40
-1.0
  9
$PLINEWID
 40
0.0
  9
$SPLFRAME
 70
     0
  9
$SPLINETYPE
 70
     6
  9
$SPLINESEGS
 70
     8
  9
$HANDSEED
  5
336
  9
$SURFTAB1
 70
     6
  9
$SURFTAB2
 70
     6
  9
$SURFTYPE
 70
     6
  9
$SURFU
 70
     6
  9
$SURFV
 70
     6
  9
$UCSBASE
  2

  9
$UCSNAME
  2

  9
$UCSORG
 10
0.0
 20
0.0
 30
0.0
  9
$UCSXDIR
 10
1.0
 20
0.0
 30
0.0
  9
$UCSYDIR
 10
0.0
 20
1.0
 30
0.0
  9
$UCSORTHOREF
  2

  9
$UCSORTHOVIEW
 70
     0
  9
$UCSORGTOP
 10
0.0
 20
0.0
 30
0.0
  9
$UCSORGBOTTOM
 10
0.0
 20
0.0
 30
0.0
  9
$UCSORGLEFT
 10
0.0
 20
0.0
 30
0.0
  9
$UCSORGRIGHT
 10
0.0
 20
0.0
 30
0.0
  9
$UCSORGFRONT
 10
0.0
 20
0.0
 30
0.0
  9
$UCSORGBACK
 10
0.0
 20
0.0
 30
0.0
  9
$PUCSBASE
  2

  9
$PUCSNAME
  2

  9
$PUCSORG
 10
0.0
 20
0.0
 30
0.0
  9
$PUCSXDIR
 10
1.0
 20
0.0
 30
0.0
  9
$PUCSYDIR
 10
0.0
 20
1.0
 30
0.0
  9
$PUCSORTHOREF
  2

  9
$PUCSORTHOVIEW
 70
     0
  9
$PUCSORGTOP
 10
0.0
 20
0.0
 30
0.0
  9
$PUCSORGBOTTOM
 10
0.0
 20
0.0
 30
0.0
  9
$PUCSORGLEFT
 10
0.0
 20
0.0
 30
0.0
  9
$PUCSORGRIGHT
 10
0.0
 20
0.0
 30
0.0
  9
$PUCSORGFRONT
 10
0.0
 20
0.0
 30
0.0
  9
$PUCSORGBACK
 10
0.0
 20
0.0
 30
0.0
  9
$USERI1
 70
     0
  9
$USERI2
 70
     0
  9
$USERI3
 70
     0
  9
$USERI4
 70
     0
  9
$USERI5
 70
     0
  9
$USERR1
 40
0.0
  9
$USERR2
 40
0.0
  9
$USERR3
 40
0.0
  9
$USERR4
 40
0.0
  9
$USERR5
 40
0.0
  9
$WORLDVIEW
 70
     1
  9
$SHADEDGE
 70
     3
  9
$SHADEDIF
 70
    70
  9
$TILEMODE
 70
     1
  9
$MAXACTVP
 70
    64
  9
$PINSBASE
 10
0.0
 20
0.0
 30
0.0
  9
$PLIMCHECK
 70
     0
  9
$PEXTMIN
 10
1.0000000000E+20
 20
1.0000000000E+20
 30
1.0000000000E+20
  9
$PEXTMAX
 10
-1.0000000000E+20
 20
-1.0000000000E+20
 30
-1.0000000000E+20
  9
$PLIMMIN
 10
0.0
 20
0.0
  9
$PLIMMAX
 10
12.0
 20
9.0
  9
$UNITMODE
 70
     0
  9
$VISRETAIN
 70
     1
  9
$PLINEGEN
 70
     0
  9
$PSLTSCALE
 70
     1
  9
$TREEDEPTH
 70
  3020
  9
$CMLSTYLE
  2
Standard
  9
$CMLJUST
 70
     0
  9
$CMLSCALE
 40
1.0
  9
$PROXYGRAPHICS
 70
     1
  9
$MEASUREMENT
 70
     0
  9
$CELWEIGHT
370
    -1
  9
$ENDCAPS
280
     0
  9
$JOINSTYLE
280
     0
  9
$LWDISPLAY
290
     1
  9
$INSUNITS
 70
     1
  9
$HYPERLINKBASE
  1

  9
$STYLESHEET
  1

  9
$XEDIT
290
     1
  9
$CEPSNTYPE
380
     0
  9
$PSTYLEMODE
290
     1
  9
$FINGERPRINTGUID
  2
{9BED5130-E46C-4F40-B2DA-5B39B787EFDA}
  9
$VERSIONGUID
  2
{FAEB1C32-E019-11D5-929B-00C0DF256EC4}
  9
$EXTNAMES
290
     1
  9
$PSVPSCALE
 40
0.0
  9
$OLESTARTUP
290
     0
  0
ENDSEC
  0
SECTION
  2
CLASSES
  0
CLASS
  1
ACDBDICTIONARYWDFLT
  2
AcDbDictionaryWithDefault
  3
ObjectDBX Classes
 90
        0
280
     0
281
     0
  0
CLASS
  1
VISUALSTYLE
  2
AcDbVisualStyle
  3
ObjectDBX Classes
 90
     4095
280
     0
281
     0
  0
CLASS
  1
MATERIAL
  2
AcDbMaterial
  3
ObjectDBX Classes
 90
     1153
280
     0
281
     0
  0
CLASS
  1
SCALE
  2
AcDbScale
  3
ObjectDBX Classes
 90
     1153
280
     0
281
     0
  0
CLASS
  1
SUN
  2
AcDbSun
  3
SCENEOE
 90
     1153
280
     0
281
     0
  0
CLASS
  1
ACDBPLACEHOLDER
  2
AcDbPlaceHolder
  3
ObjectDBX Classes
 90
        0
280
     0
281
     0
  0
CLASS
  1
LAYOUT
  2
AcDbLayout
  3
ObjectDBX Classes
 90
        0
280
     0
281
     0
  0
ENDSEC
  0
SECTION
  2
TABLES
  0
TABLE
  2
VPORT
  5
8
330
0
100
AcDbSymbolTable
 70
     1
  0
VPORT
  5
29
330
8
100
AcDbSymbolTableRecord
100
AcDbViewportTableRecord
  2
*Active
 70
     0
 10
0.0
 20
0.0
 11
1.0
 21
1.0
 12
5.5
 22
4.25
 13
0.0
 23
0.0
 14
0.5
 24
0.5
 15
0.5
 25
0.5
 16
0.0
 26
0.0
 36
1.0
 17
0.0
 27
0.0
 37
0.0
 40
8.5
 41
1.2941176471
 42
50.0
 43
0.0
 44
0.0
 50
0.0
 51
0.0
 71
     0
 72
  2000
 73
     1
 74
     3
 75
     0
 76
     0
 77
     0
 78
     0
281
     0
 65
     1
110
0.0
120
0.0
130
0.0
111
1.0
121
0.0
131
0.0
112
0.0
122
1.0
132
0.0
 79
     0
146
0.0
  0
ENDTAB
  0
TABLE
  2
LTYPE
  5
5
330
0
100
AcDbSymbolTable
 70
     6
  0
LTYPE
  5
14
330
5
100
AcDbSymbolTableRecord
100
AcDbLinetypeTableRecord
  2
ByBlock
 70
     0
  3

 72
    65
 73
     0
 40
0.0
  0
LTYPE
  5
15
330
5
100
AcDbSymbolTableRecord
100
AcDbLinetypeTableRecord
  2
ByLayer
 70
     0
  3

 72
    65
 73
     0
 40
0.0
  0
LTYPE
  5
16
330
5
100
AcDbSymbolTableRecord
100
AcDbLinetypeTableRecord
  2
Continuous
 70
     0
  3
Solid line
 72
    65
 73
     0
 40
0.0
  0
LTYPE
  5
6A
330
5
100
AcDbSymbolTableRecord
100
AcDbLinetypeTableRecord
  2
HIDDEN
 70
     0
  3
Hidden __ __ __ __ __ __ __ __ __ __ __ __ __ __
 72
    65
 73
     2
 40
0.075
 49
0.05
 74
     0
 49
-0.025
 74
     0
  0
LTYPE
  5
6B
330
5
100
AcDbSymbolTableRecord
100
AcDbLinetypeTableRecord
  2
PHANTOM
 70
     0
  3
Phantom ______  __  __  ______  __  __  ______
 72
    65
 73
     6
 40
0.5
 49
0.25
 74
     0
 49
-0.05
 74
     0
 49
0.05
 74
     0
 49
-0.05
 74
     0
 49
0.05
 74
     0
 49
-0.05
 74
     0
  0
LTYPE
  5
6C
330
5
100
AcDbSymbolTableRecord
100
AcDbLinetypeTableRecord
  2
CENTER
 70
     0
  3
Center ____ _ ____ _ ____ _ ____ _ ____ _ ____
 72
    65
 73
     4
 40
0.4
 49
0.25
 74
     0
 49
-0.05
 74
     0
 49
0.05
 74
     0
 49
-0.05
 74
     0
  0
LTYPE
  5
6D
330
5
100
AcDbSymbolTableRecord
100
AcDbLinetypeTableRecord
  2
CENTERX2
 70
     0
  3
Center (2x) ________  __  ________  __  _____
 72
    65
 73
     4
 40
0.8
 49
0.5
 74
     0
 49
-0.1
 74
     0
 49
0.1
 74
     0
 49
-0.1
 74
     0
  0
LTYPE
  5
6E
330
5
100
AcDbSymbolTableRecord
100
AcDbLinetypeTableRecord
  2
DOT2
 70
     0
  3
Dot (.5x) ........................................
 72
    65
 73
     2
 40
0.025
 49
0.0
 74
     0
 49
-0.025
 74
     0
  0
ENDTAB
  0
TABLE
  2
LAYER
  5
2
330
0
100
AcDbSymbolTable
 70
     2
  0
LAYER
  5
10
330
2
100
AcDbSymbolTableRecord
100
AcDbLayerTableRecord
  2
0
 70
     0
 62
     7
  6
Continuous
370
    -3
390
F
  0
LAYER
  5
6F
330
2
100
AcDbSymbolTableRecord
100
AcDbLayerTableRecord
  2
FORMAT
 70
     0
 62
     7
  6
Continuous
370
    -3
390
F
  0
ENDTAB
  0
TABLE
  2
STYLE
  5
3
330
0
100
AcDbSymbolTable
 70
     2
  0
STYLE
  5
11
330
3
100
AcDbSymbolTableRecord
100
AcDbTextStyleTableRecord
  2
Standard
 70
     0
 40
0.0
 41
1.0
 50
0.0
 71
     0
 42
0.1666666667
  3
txt
  4

  0
STYLE
  5
334
330
3
100
AcDbSymbolTableRecord
100
AcDbTextStyleTableRecord
  2
SLDTEXTSTYLE0
 70
     0
 40
0.0
 41
0.605
 50
0.0
 71
     0
 42
0.1666666667
  3
TXT
  4

  0
ENDTAB
  0
TABLE
  2
VIEW
  5
6
330
0
100
AcDbSymbolTable
 70
     0
  0
ENDTAB
  0
TABLE
  2
UCS
  5
7
330
0
100
AcDbSymbolTable
 70
     0
  0
ENDTAB
  0
TABLE
  2
APPID
  5
9
330
0
100
AcDbSymbolTable
 70
     1
  0
APPID
  5
12
330
9
100
AcDbSymbolTableRecord
100
AcDbRegAppTableRecord
  2
ACAD
 70
     0
  0
ENDTAB
  0
TABLE
  2
DIMSTYLE
  5
A
330
0
100
AcDbSymbolTable
 70
     1
100
AcDbDimStyleTable
  0
DIMSTYLE
105
27
330
A
100
AcDbSymbolTableRecord
100
AcDbDimStyleTableRecord
  2
Standard
 70
     0
178
     0
340
11
  0
ENDTAB
  0
TABLE
  2
BLOCK_RECORD
  5
1
330
0
100
AcDbSymbolTable
 70
     1
  0
BLOCK_RECORD
  5
1F
330
1
100
AcDbSymbolTableRecord
100
AcDbBlockTableRecord
  2
*Model_Space
340
22
  0
BLOCK_RECORD
  5
1B
330
1
100
AcDbSymbolTableRecord
100
AcDbBlockTableRecord
  2
*Paper_Space
340
1E
  0
BLOCK_RECORD
  5
23
330
1
100
AcDbSymbolTableRecord
100
AcDbBlockTableRecord
  2
*Paper_Space0
340
26
  0
ENDTAB
  0
ENDSEC
  0
SECTION
  2
BLOCKS
  0
BLOCK
  5
20
330
1F
100
AcDbEntity
  8
0
100
AcDbBlockBegin
  2
*Model_Space
 70
     0
 10
0.0
 20
0.0
 30
0.0
  3
*Model_Space
  1
*Model_Space
  0
ENDBLK
  5
21
330
1F
100
AcDbEntity
  8
0
100
AcDbBlockEnd
  0
BLOCK
  5
1C
330
1B
100
AcDbEntity
 67
     1
  8
0
100
AcDbBlockBegin
  2
*Paper_Space
 70
     0
 10
0.0
 20
0.0
 30
0.0
  3
*Paper_Space
  1
*Paper_Space
  0
ENDBLK
  5
1D
330
1B
100
AcDbEntity
 67
     1
  8
0
100
AcDbBlockEnd
  0
BLOCK
  5
24
330
23
100
AcDbEntity
  8
0
100
AcDbBlockBegin
  2
*Paper_Space0
 70
     0
 10
0.0
 20
0.0
 30
0.0
  3
*Paper_Space0
  1
*Paper_Space0
  0
ENDBLK
  5
25
330
23
100
AcDbEntity
  8
0
100
AcDbBlockEnd
  0
ENDSEC
  0
SECTION
  2
ENTITIES
  0
LINE
  5
70
330
1F
100
AcDbEntity
  8
0
  6
Continuous
 62
     7
370
    30
100
AcDbLine
 10
4.374092126
 20
4.4301589862
 30
0.0
 11
4.374092126
 21
4.4801589865
 31
0.0
  0
LINE
  5
71
330
1F
100
AcDbEntity
  8
0
  6
Continuous
 62
     7
370
    30
100
AcDbLine
 10
4.6245005666
 20
4.4801589865
 30
0.0
 11
4.374092126
 21
4.4801589865
 31
0.0
  0
ARC
  5
72
330
1F
100
AcDbEntity
  8
0
  6
Continuous
 62
     7
370
    30
100
AcDbCircle
 10
4.6245005831
 20
4.5051589862
 30
0.0
 40
0.0249999999999998
100
AcDbArc
 50
270.0
 51
21.86614513
  0
ARC
  5
73
330
1F
100
AcDbEntity
  8
0
  6
Continuous
 62
     7
370
    30
100
AcDbCircle
 10
4.7490921659
 20
4.5551589862
 30
0.0
 40
0.1092499999999999
100
AcDbArc
 50
193.0667292143
 51
201.86614513
  0
ARC
  5
74
330
1F
100
AcDbEntity
  8
0
  6
Continuous
 62
     7
370
    30
100
AcDbCircle
 10
4.6670236161
 20
4.5361112663
 30
0.0
 40
0.0250000000000011
100
AcDbArc
 50
13.0667292143
 51
193.0667292143
  0
ARC
  5
75
330
1F
100
AcDbEntity
  8
0
  6
Continuous
 62
     7
370
    30
100
AcDbCircle
 10
4.7490921659
 20
4.5551589862
 30
0.0
 40
0.0592500000000005
100
AcDbArc
 50
193.0667292143
 51
90.0
  0
LINE
  5
76
330
1F
100
AcDbEntity
  8
0
  6
Continuous
 62
     7
370
    30
100
AcDbLine
 10
4.7240921694
 20
4.6144089844
 30
0.0
 11
4.7490921673
 21
4.6144089844
 31
0.0
  0
ARC
  5
77
330
1F
100
AcDbEntity
  8
0
  6
Continuous
 62
     7
370
    30
100
AcDbCircle
 10
4.6490921659
 20
5.5026711516
 30
0.0
 40
0.0750000000000001
100
AcDbArc
 50
0.0
 51
83.3002348222
  0
ARC
  5
78
330
1F
100
AcDbEntity
  8
0
  6
Continuous
 62
     7
370
    30
100
AcDbCircle
 10
4.6630921659
 20
5.6218516869
 30
0.0
 40
0.0450000000000004
100
AcDbArc
 50
180.0
 51
263.3002348222
  0
LINE
  5
79
330
1F
100
AcDbEntity
  8
0
  6
Continuous
 62
     7
370
    30
100
AcDbLine
 10
4.6180921873
 20
5.697158963
 30
0.0
 11
4.6180921873
 21
5.6218517063
 31
0.0
  0
ARC
  5
7A
330
1F
100
AcDbEntity
  8
0
  6
Continuous
 62
     7
370
    30
100
AcDbCircle
 10
4.6280921659
 20
5.6971589862
 30
0.0
 40
0.0099999999999998
100
AcDbArc
 50
90.0
 51
180.0
  0
LINE
  5
7B
330
1F
100
AcDbEntity
  8
0
  6
Continuous
 62
     7
370
    30
100
AcDbLine
 10
4.6345281974
 20
5.7071590208
 30
0.0
 11
4.6280921718
 21
5.7071590208
 31
0.0
  0
LINE
  5
7C
330
1F
100
AcDbEntity
  8
0
  6
Continuous
 62
     7
370
    30
100
AcDbLine
 10
4.668092183
 20
5.6671589362
 30
0.0
 11
4.6345281974
 21
5.7071590208
 31
0.0
  0
LINE
  5
7D
330
1F
100
AcDbEntity
  8
0
  6
Continuous
 62
     7
370
    30
100
AcDbLine
 10
4.6592757849
 20
5.6171590138
 30
0.0
 11
4.668092183
 21
5.6671589362
 31
0.0
  0
LINE
  5
7E
330
1F
100
AcDbEntity
  8
0
  6
Continuous
 62
     7
370
    30
100
AcDbLine
 10
4.7240921694
 20
5.6171590138
 30
0.0
 11
4.6592757849
 21
5.6171590138
 31
0.0
  0
LINE
  5
7F
330
1F
100
AcDbEntity
  8
0
  6
Continuous
 62
     7
370
    30
100
AcDbLine
 10
4.7240921694
 20
6.2421589605
 30
0.0
 11
4.7240921694
 21
5.6171590138
 31
0.0
  0
LINE
  5
80
330
1F
100
AcDbEntity
  8
0
  6
Continuous
 62
     7
370
    30
100
AcDbLine
 10
4.7240921694
 20
6.2421589605
 30
0.0
 11
4.7740921652
 21
6.2421589605
 31
0.0
  0
LINE
  5
81
330
1F
100
AcDbEntity
  8
0
  6
Continuous
 62
     7
370
    30
100
AcDbLine
 10
4.8389085497
 20
5.6171590138
 30
0.0
 11
4.7740921652
 21
5.6171590138
 31
0.0
  0
LINE
  5
82
330
1F
100
AcDbEntity
  8
0
  6
Continuous
 62
     7
370
    30
100
AcDbLine
 10
4.8636561372
 20
5.7071590208
 30
0.0
 11
4.8300921516
 21
5.6671589362
 31
0.0
  0
LINE
  5
83
330
1F
100
AcDbEntity
  8
0
  6
Continuous
 62
     7
370
    30
100
AcDbLine
 10
5.1240921719
 20
4.4301589862
 30
0.0
 11
5.1240921719
 21
4.4801589865
 31
0.0
  0
LINE
  5
84
330
1F
100
AcDbEntity
  8
0
  6
Continuous
 62
     7
370
    30
100
AcDbLine
 10
4.374092126
 20
4.4301589862
 30
0.0
 11
5.1240921719
 21
4.4301589862
 31
0.0
  0
LINE
  5
85
330
1F
100
AcDbEntity
  8
0
  6
Continuous
 62
     7
370
    30
100
AcDbLine
 10
4.7240921694
 20
5.5026711631
 30
0.0
 11
4.7240921694
 21
4.6144089844
 31
0.0
  0
LINE
  5
86
330
1F
100
AcDbEntity
  8
0
  6
Continuous
 62
     7
370
    30
100
AcDbLine
 10
5.1240921719
 20
4.4801589865
 30
0.0
 11
4.873683768
 21
4.4801589865
 31
0.0
  0
ARC
  5
87
330
1F
100
AcDbEntity
  8
0
  6
Continuous
 62
     7
370
    30
100
AcDbCircle
 10
4.8736837487
 20
4.5051589862
 30
0.0
 40
0.0249999999999998
100
AcDbArc
 50
158.13385487
 51
270.0
  0
ARC
  5
88
330
1F
100
AcDbEntity
  8
0
  6
Continuous
 62
     7
370
    30
100
AcDbCircle
 10
4.7490921659
 20
4.5551589862
 30
0.0
 40
0.1092500000000003
100
AcDbArc
 50
338.13385487
 51
76.7716275079
  0
LINE
  5
89
330
1F
100
AcDbEntity
  8
0
  6
Continuous
 62
     7
370
    30
100
AcDbLine
 10
4.7740921652
 20
4.6615101103
 30
0.0
 11
4.7740921652
 21
5.5026711631
 31
0.0
  0
ARC
  5
8A
330
1F
100
AcDbEntity
  8
0
  6
Continuous
 62
     7
370
    30
100
AcDbCircle
 10
4.8490921659
 20
5.5026711516
 30
0.0
 40
0.0750000000000001
100
AcDbArc
 50
96.6997651778
 51
180.0
  0
ARC
  5
8B
330
1F
100
AcDbEntity
  8
0
  6
Continuous
 62
     7
370
    30
100
AcDbCircle
 10
4.8350921659
 20
5.6218516869
 30
0.0
 40
0.0450000000000008
100
AcDbArc
 50
276.6997651778
 51
0.0
  0
LINE
  5
8C
330
1F
100
AcDbEntity
  8
0
  6
Continuous
 62
     7
370
    30
100
AcDbLine
 10
4.8800921473
 20
5.6218517063
 30
0.0
 11
4.8800921473
 21
5.697158963
 31
0.0
  0
ARC
  5
8D
330
1F
100
AcDbEntity
  8
0
  6
Continuous
 62
     7
370
    30
100
AcDbCircle
 10
4.8700921659
 20
5.6971589862
 30
0.0
 40
0.0099999999999998
100
AcDbArc
 50
0.0
 51
90.0
  0
LINE
  5
8E
330
1F
100
AcDbEntity
  8
0
  6
Continuous
 62
     7
370
    30
100
AcDbLine
 10
4.8700921628
 20
5.7071590208
 30
0.0
 11
4.8636561372
 21
5.7071590208
 31
0.0
  0
LINE
  5
8F
330
1F
100
AcDbEntity
  8
0
  6
Continuous
 62
     7
370
    30
100
AcDbLine
 10
4.8300921516
 20
5.6671589362
 30
0.0
 11
4.8389085497
 21
5.6171590138
 31
0.0
  0
LINE
  5
90
330
1F
100
AcDbEntity
  8
0
  6
Continuous
 62
     7
370
    30
100
AcDbLine
 10
4.7740921652
 20
5.6171590138
 30
0.0
 11
4.7740921652
 21
6.2421589605
 31
0.0
  0
LINE
  5
91
330
1F
100
AcDbEntity
  8
0
  6
Continuous
 62
     7
370
    30
100
AcDbLine
 10
6.1240921599
 20
4.4301589862
 30
0.0
 11
6.1240921599
 21
4.4801589865
 31
0.0
  0
LINE
  5
92
330
1F
100
AcDbEntity
  8
0
  6
Continuous
 62
     7
370
    30
100
AcDbLine
 10
6.3745005638
 20
4.4801589865
 30
0.0
 11
6.1240921599
 21
4.4801589865
 31
0.0
  0
ARC
  5
93
330
1F
100
AcDbEntity
  8
0
  6
Continuous
 62
     7
370
    30
100
AcDbCircle
 10
6.3745005831
 20
4.5051589862
 30
0.0
 40
0.0250000000000006
100
AcDbArc
 50
270.0
 51
21.86614513
  0
ARC
  5
94
330
1F
100
AcDbEntity
  8
0
  6
Continuous
 62
     7
370
    30
100
AcDbCircle
 10
6.4990921659
 20
4.5551589862
 30
0.0
 40
0.1092500000000008
100
AcDbArc
 50
193.0667292143
 51
201.86614513
  0
ARC
  5
95
330
1F
100
AcDbEntity
  8
0
  6
Continuous
 62
     7
370
    30
100
AcDbCircle
 10
6.4170236161
 20
4.5361112663
 30
0.0
 40
0.0250000000000002
100
AcDbArc
 50
13.0667292143
 51
193.0667292143
  0
ARC
  5
96
330
1F
100
AcDbEntity
  8
0
  6
Continuous
 62
     7
370
    30
100
AcDbCircle
 10
6.4990921659
 20
4.5551589862
 30
0.0
 40
0.059250000000001
100
AcDbArc
 50
193.0667292143
 51
90.0
  0
LINE
  5
97
330
1F
100
AcDbEntity
  8
0
  6
Continuous
 62
     7
370
    30
100
AcDbLine
 10
6.4740921666
 20
4.6144089844
 30
0.0
 11
6.4990921645
 21
4.6144089844
 31
0.0
  0
LINE
  5
98
330
1F
100
AcDbEntity
  8
0
  6
Continuous
 62
     7
370
    30
100
AcDbLine
 10
6.4740921666
 20
5.5026711631
 30
0.0
 11
6.4740921666
 21
4.6144089844
 31
0.0
  0
ARC
  5
99
330
1F
100
AcDbEntity
  8
0
  6
Continuous
 62
     7
370
    30
100
AcDbCircle
 10
6.3990921659
 20
5.5026711516
 30
0.0
 40
0.075000000000001
100
AcDbArc
 50
0.0
 51
83.3002348222
  0
ARC
  5
9A
330
1F
100
AcDbEntity
  8
0
  6
Continuous
 62
     7
370
    30
100
AcDbCircle
 10
6.4130921659
 20
5.6218516869
 30
0.0
 40
0.0449999999999999
100
AcDbArc
 50
180.0
 51
263.3002348222
  0
LINE
  5
9B
330
1F
100
AcDbEntity
  8
0
  6
Continuous
 62
     7
370
    30
100
AcDbLine
 10
6.3680921845
 20
5.697158963
 30
0.0
 11
6.3680921845
 21
5.6218517063
 31
0.0
  0
ARC
  5
9C
330
1F
100
AcDbEntity
  8
0
  6
Continuous
 62
     7
370
    30
100
AcDbCircle
 10
6.3780921659
 20
5.6971589862
 30
0.0
 40
0.0099999999999998
100
AcDbArc
 50
90.0
 51
180.0
  0
LINE
  5
9D
330
1F
100
AcDbEntity
  8
0
  6
Continuous
 62
     7
370
    30
100
AcDbLine
 10
6.3845281946
 20
5.7071590208
 30
0.0
 11
6.378092169
 21
5.7071590208
 31
0.0
  0
LINE
  5
9E
330
1F
100
AcDbEntity
  8
0
  6
Continuous
 62
     7
370
    30
100
AcDbLine
 10
6.4180921802
 20
5.6671589362
 30
0.0
 11
6.3845281946
 21
5.7071590208
 31
0.0
  0
LINE
  5
9F
330
1F
100
AcDbEntity
  8
0
  6
Continuous
 62
     7
370
    30
100
AcDbLine
 10
6.4092757821
 20
5.6171590138
 30
0.0
 11
6.4180921802
 21
5.6671589362
 31
0.0
  0
LINE
  5
A0
330
1F
100
AcDbEntity
  8
0
  6
Continuous
 62
     7
370
    30
100
AcDbLine
 10
6.4740921666
 20
5.6171590138
 30
0.0
 11
6.4092757821
 21
5.6171590138
 31
0.0
  0
LINE
  5
A1
330
1F
100
AcDbEntity
  8
0
  6
Continuous
 62
     7
370
    30
100
AcDbLine
 10
6.4740921666
 20
6.2421589605
 30
0.0
 11
6.4740921666
 21
5.6171590138
 31
0.0
  0
LINE
  5
A2
330
1F
100
AcDbEntity
  8
0
  6
Continuous
 62
     7
370
    30
100
AcDbLine
 10
6.4740921666
 20
6.2421589605
 30
0.0
 11
6.5240921624
 21
6.2421589605
 31
0.0
  0
LINE
  5
A3
330
1F
100
AcDbEntity
  8
0
  6
Continuous
 62
     7
370
    30
100
AcDbLine
 10
6.5240921624
 20
5.6171590138
 30
0.0
 11
6.5240921624
 21
6.2421589605
 31
0.0
  0
LINE
  5
A4
330
1F
100
AcDbEntity
  8
0
  6
Continuous
 62
     7
370
    30
100
AcDbLine
 10
6.5889085469
 20
5.6171590138
 30
0.0
 11
6.5240921624
 21
5.6171590138
 31
0.0
  0
LINE
  5
A5
330
1F
100
AcDbEntity
  8
0
  6
Continuous
 62
     7
370
    30
100
AcDbLine
 10
6.5800921488
 20
5.6671589362
 30
0.0
 11
6.5889085469
 21
5.6171590138
 31
0.0
  0
LINE
  5
A6
330
1F
100
AcDbEntity
  8
0
  6
Continuous
 62
     7
370
    30
100
AcDbLine
 10
6.6136561344
 20
5.7071590208
 30
0.0
 11
6.5800921488
 21
5.6671589362
 31
0.0
  0
LINE
  5
A7
330
1F
100
AcDbEntity
  8
0
  6
Continuous
 62
     7
370
    30
100
AcDbLine
 10
6.62009216
 20
5.7071590208
 30
0.0
 11
6.6136561344
 21
5.7071590208
 31
0.0
  0
ARC
  5
A8
330
1F
100
AcDbEntity
  8
0
  6
Continuous
 62
     7
370
    30
100
AcDbCircle
 10
6.6200921659
 20
5.6971589862
 30
0.0
 40
0.0099999999999998
100
AcDbArc
 50
0.0
 51
90.0
  0
LINE
  5
A9
330
1F
100
AcDbEntity
  8
0
  6
Continuous
 62
     7
370
    30
100
AcDbLine
 10
6.6300921445
 20
5.6218517063
 30
0.0
 11
6.6300921445
 21
5.697158963
 31
0.0
  0
ARC
  5
AA
330
1F
100
AcDbEntity
  8
0
  6
Continuous
 62
     7
370
    30
100
AcDbCircle
 10
6.5850921659
 20
5.6218516869
 30
0.0
 40
0.0450000000000008
100
AcDbArc
 50
276.6997651778
 51
0.0
  0
ARC
  5
AB
330
1F
100
AcDbEntity
  8
0
  6
Continuous
 62
     7
370
    30
100
AcDbCircle
 10
6.5990921659
 20
5.5026711516
 30
0.0
 40
0.0750000000000009
100
AcDbArc
 50
96.6997651778
 51
180.0
  0
LINE
  5
AC
330
1F
100
AcDbEntity
  8
0
  6
Continuous
 62
     7
370
    30
100
AcDbLine
 10
6.5240921624
 20
4.6615101103
 30
0.0
 11
6.5240921624
 21
5.5026711631
 31
0.0
  0
ARC
  5
AD
330
1F
100
AcDbEntity
  8
0
  6
Continuous
 62
     7
370
    30
100
AcDbCircle
 10
6.4990921659
 20
4.5551589862
 30
0.0
 40
0.1092499999999995
100
AcDbArc
 50
338.13385487
 51
76.7716275079
  0
ARC
  5
AE
330
1F
100
AcDbEntity
  8
0
  6
Continuous
 62
     7
370
    30
100
AcDbCircle
 10
6.6236837487
 20
4.5051589862
 30
0.0
 40
0.0250000000000006
100
AcDbArc
 50
158.13385487
 51
270.0
  0
LINE
  5
AF
330
1F
100
AcDbEntity
  8
0
  6
Continuous
 62
     7
370
    30
100
AcDbLine
 10
6.8740922058
 20
4.4301589862
 30
0.0
 11
6.8740922058
 21
4.4801589865
 31
0.0
  0
LINE
  5
B0
330
1F
100
AcDbEntity
  8
0
  6
Continuous
 62
     7
370
    30
100
AcDbLine
 10
6.1240921599
 20
4.4301589862
 30
0.0
 11
6.8740922058
 21
4.4301589862
 31
0.0
  0
LINE
  5
B1
330
1F
100
AcDbEntity
  8
0
  6
Continuous
 62
     7
370
    30
100
AcDbLine
 10
6.8740922058
 20
4.4801589865
 30
0.0
 11
6.6236837652
 21
4.4801589865
 31
0.0
  0
ARC
  5
B2
330
1F
100
AcDbEntity
  8
0
  6
Continuous
 62
     7
370
    30
100
AcDbCircle
 10
1.7640921659
 20
4.4651589862
 30
0.0
 40
0.0150000000000006
100
AcDbArc
 50
90.0
 51
180.0
  0
LINE
  5
B3
330
1F
100
AcDbEntity
  8
0
  6
Continuous
 62
     7
370
    30
100
AcDbLine
 10
1.7640921436
 20
4.4801589865
 30
0.0
 11
2.9590922322
 21
4.4801589865
 31
0.0
  0
ARC
  5
B4
330
1F
100
AcDbEntity
  8
0
  6
Continuous
 62
     7
370
    30
100
AcDbCircle
 10
2.9590921659
 20
4.4951589862
 30
0.0
 40
0.0149999999999997
100
AcDbArc
 50
270.0
 51
0.0
  0
ARC
  5
B5
330
1F
100
AcDbEntity
  8
0
  6
Continuous
 62
     7
370
    30
100
AcDbCircle
 10
2.9590921659
 20
4.6861589862
 30
0.0
 40
0.0150000000000001
100
AcDbArc
 50
0.0
 51
90.0
  0
ARC
  5
B6
330
1F
100
AcDbEntity
  8
0
  6
Continuous
 62
     7
370
    30
100
AcDbCircle
 10
2.8765921659
 20
4.7161589862
 30
0.0
 40
0.0150000000000006
100
AcDbArc
 50
180.0
 51
270.0
  0
LINE
  5
B7
330
1F
100
AcDbEntity
  8
0
  6
Continuous
 62
     7
370
    30
100
AcDbLine
 10
2.8615922919
 20
4.7161589823
 30
0.0
 11
2.8615922919
 21
4.8049090004
 31
0.0
  0
ARC
  5
B8
330
1F
100
AcDbEntity
  8
0
  6
Continuous
 62
     7
370
    30
100
AcDbCircle
 10
2.8765921659
 20
4.8049089862
 30
0.0
 40
0.0150000000000001
100
AcDbArc
 50
90.0
 51
180.0
  0
LINE
  5
B9
330
1F
100
AcDbEntity
  8
0
  6
Continuous
 62
     7
370
    30
100
AcDbLine
 10
2.8765923053
 20
4.8199089771
 30
0.0
 11
2.8965921275
 21
4.8199089771
 31
0.0
  0
ARC
  5
BA
330
1F
100
AcDbEntity
  8
0
  6
Continuous
 62
     7
370
    30
100
AcDbCircle
 10
2.8965921659
 20
4.8049089862
 30
0.0
 40
0.0150000000000006
100
AcDbArc
 50
0.0
 51
90.0
  0
LINE
  5
BB
330
1F
100
AcDbEntity
  8
0
  6
Continuous
 62
     7
370
    30
100
AcDbLine
 10
2.9115921409
 20
4.8049090004
 30
0.0
 11
2.9115921409
 21
4.766158978
 31
0.0
  0
ARC
  5
BC
330
1F
100
AcDbEntity
  8
0
  6
Continuous
 62
     7
370
    30
100
AcDbCircle
 10
2.9265921659
 20
4.7661589862
 30
0.0
 40
0.0149999999999997
100
AcDbArc
 50
180.0
 51
270.0
  0
LINE
  5
BD
330
1F
100
AcDbEntity
  8
0
  6
Continuous
 62
     7
370
    30
100
AcDbLine
 10
2.9265921543
 20
4.7511590013
 30
0.0
 11
2.9590922322
 21
4.7511590013
 31
0.0
  0
ARC
  5
BE
330
1F
100
AcDbEntity
  8
0
  6
Continuous
 62
     7
370
    30
100
AcDbCircle
 10
2.9590921659
 20
4.7661589862
 30
0.0
 40
0.0150000000000001
100
AcDbArc
 50
270.0
 51
0.0
  0
ARC
  5
BF
330
1F
100
AcDbEntity
  8
0
  6
Continuous
 62
     7
370
    30
100
AcDbCircle
 10
2.9590921659
 20
5.3611589862
 30
0.0
 40
0.0150000000000001
100
AcDbArc
 50
0.0
 51
90.0
  0
ARC
  5
C0
330
1F
100
AcDbEntity
  8
0
  6
Continuous
 62
     7
370
    30
100
AcDbCircle
 10
2.9265921659
 20
5.3611589862
 30
0.0
 40
0.0150000000000001
100
AcDbArc
 50
90.0
 51
180.0
  0
LINE
  5
C1
330
1F
100
AcDbEntity
  8
0
  6
Continuous
 62
     7
370
    30
100
AcDbLine
 10
2.9115921409
 20
5.3611589712
 30
0.0
 11
2.9115921409
 21
5.3224089855
 31
0.0
  0
ARC
  5
C2
330
1F
100
AcDbEntity
  8
0
  6
Continuous
 62
     7
370
    30
100
AcDbCircle
 10
2.8965921659
 20
5.3224089862
 30
0.0
 40
0.0150000000000006
100
AcDbArc
 50
270.0
 51
0.0
  0
LINE
  5
C3
330
1F
100
AcDbEntity
  8
0
  6
Continuous
 62
     7
370
    30
100
AcDbLine
 10
2.8965921275
 20
5.3074089721
 30
0.0
 11
2.8765923053
 21
5.3074089721
 31
0.0
  0
ARC
  5
C4
330
1F
100
AcDbEntity
  8
0
  6
Continuous
 62
     7
370
    30
100
AcDbCircle
 10
2.8765921659
 20
5.3224089862
 30
0.0
 40
0.0150000000000001
100
AcDbArc
 50
180.0
 51
270.0
  0
LINE
  5
C5
330
1F
100
AcDbEntity
  8
0
  6
Continuous
 62
     7
370
    30
100
AcDbLine
 10
2.8615922919
 20
5.3224089855
 30
0.0
 11
2.8615922919
 21
5.4799089794
 31
0.0
  0
ARC
  5
C6
330
1F
100
AcDbEntity
  8
0
  6
Continuous
 62
     7
370
    30
100
AcDbCircle
 10
2.8765921659
 20
5.4799089862
 30
0.0
 40
0.0150000000000006
100
AcDbArc
 50
90.0
 51
180.0
  0
ARC
  5
C7
330
1F
100
AcDbEntity
  8
0
  6
Continuous
 62
     7
370
    30
100
AcDbCircle
 10
2.8965921659
 20
5.4799089862
 30
0.0
 40
0.0150000000000006
100
AcDbArc
 50
0.0
 51
90.0
  0
LINE
  5
C8
330
1F
100
AcDbEntity
  8
0
  6
Continuous
 62
     7
370
    30
100
AcDbLine
 10
2.9115921409
 20
5.4799089794
 30
0.0
 11
2.9115921409
 21
5.4411589937
 31
0.0
  0
ARC
  5
C9
330
1F
100
AcDbEntity
  8
0
  6
Continuous
 62
     7
370
    30
100
AcDbCircle
 10
2.9265921659
 20
5.4411589862
 30
0.0
 40
0.0150000000000001
100
AcDbArc
 50
180.0
 51
270.0
  0
LINE
  5
CA
330
1F
100
AcDbEntity
  8
0
  6
Continuous
 62
     7
370
    30
100
AcDbLine
 10
2.9265921543
 20
5.4261589803
 30
0.0
 11
2.9590922322
 21
5.4261589803
 31
0.0
  0
LINE
  5
CB
330
1F
100
AcDbEntity
  8
0
  6
Continuous
 62
     7
370
    30
100
AcDbLine
 10
2.9740922456
 20
5.4411589937
 30
0.0
 11
2.9740922456
 21
6.2321590493
 31
0.0
  0
ARC
  5
CC
330
1F
100
AcDbEntity
  8
0
  6
Continuous
 62
     7
370
    30
100
AcDbCircle
 10
2.9840921659
 20
6.2321589862
 30
0.0
 40
0.0100000000000007
100
AcDbArc
 50
90.0
 51
180.0
  0
LINE
  5
CD
330
1F
100
AcDbEntity
  8
0
  6
Continuous
 62
     7
370
    30
100
AcDbLine
 10
2.9840921567
 20
6.2421589605
 30
0.0
 11
3.0140921835
 21
6.2421589605
 31
0.0
  0
ARC
  5
CE
330
1F
100
AcDbEntity
  8
0
  6
Continuous
 62
     7
370
    30
100
AcDbCircle
 10
3.0140921659
 20
6.2321589862
 30
0.0
 40
0.0100000000000007
100
AcDbArc
 50
0.0
 51
90.0
  0
LINE
  5
CF
330
1F
100
AcDbEntity
  8
0
  6
Continuous
 62
     7
370
    30
100
AcDbLine
 10
3.0240920947
 20
6.2321590493
 30
0.0
 11
3.0240920947
 21
5.6321589539
 31
0.0
  0
ARC
  5
D0
330
1F
100
AcDbEntity
  8
0
  6
Continuous
 62
     7
370
    30
100
AcDbCircle
 10
3.0390921659
 20
5.6321589862
 30
0.0
 40
0.0150000000000001
100
AcDbArc
 50
180.0
 51
270.0
  0
LINE
  5
D1
330
1F
100
AcDbEntity
  8
0
  6
Continuous
 62
     7
370
    30
100
AcDbLine
 10
3.039092108
 20
5.6171590138
 30
0.0
 11
3.0710322191
 21
5.6171590138
 31
0.0
  0
ARC
  5
D2
330
1F
100
AcDbEntity
  8
0
  6
Continuous
 62
     7
370
    30
100
AcDbCircle
 10
3.071032211
 20
5.6321589862
 30
0.0
 40
0.0149999999999998
100
AcDbArc
 50
270.0
 51
10.0
  0
LINE
  5
D3
330
1F
100
AcDbEntity
  8
0
  6
Continuous
 62
     7
370
    30
100
AcDbLine
 10
3.0858043151
 20
5.6347637238
 30
0.0
 11
3.0800923011
 21
5.6671589362
 31
0.0
  0
LINE
  5
D4
330
1F
100
AcDbEntity
  8
0
  6
Continuous
 62
     7
370
    30
100
AcDbLine
 10
3.0800923011
 20
5.6671589362
 30
0.0
 11
3.1136562867
 21
5.7071590208
 31
0.0
  0
LINE
  5
D5
330
1F
100
AcDbEntity
  8
0
  6
Continuous
 62
     7
370
    30
100
AcDbLine
 10
3.1136562867
 20
5.7071590208
 30
0.0
 11
3.120092239
 21
5.7071590208
 31
0.0
  0
ARC
  5
D6
330
1F
100
AcDbEntity
  8
0
  6
Continuous
 62
     7
370
    30
100
AcDbCircle
 10
3.1200921659
 20
5.6971589862
 30
0.0
 40
0.0100000000000002
100
AcDbArc
 50
0.0
 51
90.0
  0
ARC
  5
D7
330
1F
100
AcDbEntity
  8
0
  6
Continuous
 62
     7
370
    30
100
AcDbCircle
 10
3.0390921659
 20
4.4951589862
 30
0.0
 40
0.0150000000000001
100
AcDbArc
 50
180.0
 51
270.0
  0
ARC
  5
D8
330
1F
100
AcDbEntity
  8
0
  6
Continuous
 62
     7
370
    30
100
AcDbCircle
 10
3.3590921659
 20
4.4651589862
 30
0.0
 40
0.0150000000000006
100
AcDbArc
 50
0.0
 51
90.0
  0
LINE
  5
D9
330
1F
100
AcDbEntity
  8
0
  6
Continuous
 62
     7
370
    30
100
AcDbLine
 10
3.3740922114
 20
4.4651589869
 30
0.0
 11
3.3740922114
 21
4.3921589856
 31
0.0
  0
ARC
  5
DA
330
1F
100
AcDbEntity
  8
0
  6
Continuous
 62
     7
370
    30
100
AcDbCircle
 10
3.3690921659
 20
4.3921589862
 30
0.0
 40
0.0050000000000008
100
AcDbArc
 50
270.0
 51
360.0
  0
ARC
  5
DB
330
1F
100
AcDbEntity
  8
0
  6
Continuous
 62
     7
370
    30
100
AcDbCircle
 10
3.3690921659
 20
4.4121589862
 30
0.0
 40
0.0250000000000004
100
AcDbArc
 50
180.0
 51
270.0
  0
ARC
  5
DC
330
1F
100
AcDbEntity
  8
0
  6
Continuous
 62
     7
370
    30
100
AcDbCircle
 10
1.7640921659
 20
4.4549572839
 30
0.0
 40
0.0150000000000002
100
AcDbArc
 50
180.0
 51
269.22435068
  0
ARC
  5
DD
330
1F
100
AcDbEntity
  8
0
  6
Continuous
 62
     7
370
    30
100
AcDbCircle
 10
3.0850921659
 20
5.6218516869
 30
0.0
 40
0.044999999999999
100
AcDbArc
 50
276.6997651778
 51
0.0
  0
LINE
  5
DE
330
1F
100
AcDbEntity
  8
0
  6
Continuous
 62
     7
370
    30
100
AcDbLine
 10
2.9590922322
 20
4.7011589872
 30
0.0
 11
2.8765923053
 21
4.7011589872
 31
0.0
  0
LINE
  5
DF
330
1F
100
AcDbEntity
  8
0
  6
Continuous
 62
     7
370
    30
100
AcDbLine
 10
3.0240920947
 20
5.5026711631
 30
0.0
 11
3.0240920947
 21
4.4951589861
 31
0.0
  0
LINE
  5
E0
330
1F
100
AcDbEntity
  8
0
  6
Continuous
 62
     7
370
    30
100
AcDbLine
 10
3.039092108
 20
4.4801589865
 30
0.0
 11
3.359092198
 21
4.4801589865
 31
0.0
  0
LINE
  5
E1
330
1F
100
AcDbEntity
  8
0
  6
Continuous
 62
     7
370
    30
100
AcDbLine
 10
3.3440921847
 20
4.4185651396
 30
0.0
 11
1.7638891593
 21
4.4399586584
 31
0.0
  0
LINE
  5
E2
330
1F
100
AcDbEntity
  8
0
  6
Continuous
 62
     7
370
    30
100
AcDbLine
 10
2.9740922456
 20
4.4951589861
 30
0.0
 11
2.9740922456
 21
4.6861589922
 31
0.0
  0
LINE
  5
E3
330
1F
100
AcDbEntity
  8
0
  6
Continuous
 62
     7
370
    30
100
AcDbLine
 10
2.9740922456
 20
4.766158978
 30
0.0
 11
2.9740922456
 21
5.3611589712
 31
0.0
  0
LINE
  5
E4
330
1F
100
AcDbEntity
  8
0
  6
Continuous
 62
     7
370
    30
100
AcDbLine
 10
2.9590922322
 20
5.3761589846
 30
0.0
 11
2.9265921543
 21
5.3761589846
 31
0.0
  0
LINE
  5
E5
330
1F
100
AcDbEntity
  8
0
  6
Continuous
 62
     7
370
    30
100
AcDbLine
 10
1.7490921302
 20
4.4651589869
 30
0.0
 11
1.7490921302
 21
4.454957283
 31
0.0
  0
LINE
  5
E6
330
1F
100
AcDbEntity
  8
0
  6
Continuous
 62
     7
370
    30
100
AcDbLine
 10
2.8765923053
 20
5.4949089928
 30
0.0
 11
2.8965921275
 21
5.4949089928
 31
0.0
  0
ARC
  5
E7
330
1F
100
AcDbEntity
  8
0
  6
Continuous
 62
     7
370
    30
100
AcDbCircle
 10
2.9590921659
 20
5.4411589862
 30
0.0
 40
0.0150000000000001
100
AcDbArc
 50
270.0
 51
0.0
  0
ARC
  5
E8
330
1F
100
AcDbEntity
  8
0
  6
Continuous
 62
     7
370
    30
100
AcDbCircle
 10
3.0990921659
 20
5.5026711516
 30
0.0
 40
0.0750000000000002
100
AcDbArc
 50
96.6997651778
 51
180.0
  0
LINE
  5
E9
330
1F
100
AcDbEntity
  8
0
  6
Continuous
 62
     7
370
    30
100
AcDbLine
 10
3.3440921847
 20
4.4121589866
 30
0.0
 11
3.3440921847
 21
4.4185651396
 31
0.0
  0
LINE
  5
EA
330
1F
100
AcDbEntity
  8
0
  6
Continuous
 62
     7
370
    30
100
AcDbLine
 10
3.1300921501
 20
5.697158963
 30
0.0
 11
3.1300921501
 21
5.6218517063
 31
0.0
  0
LINE
  5
EB
330
1F
100
AcDbEntity
  8
0
  6
Continuous
 62
     7
370
    30
100
AcDbLine
 10
9.4842951725
 20
4.4399586584
 30
0.0
 11
7.9040921471
 21
4.4185651396
 31
0.0
  0
LINE
  5
EC
330
1F
100
AcDbEntity
  8
0
  6
Continuous
 62
     7
370
    30
100
AcDbLine
 10
7.9040921471
 20
4.4185651396
 30
0.0
 11
7.9040921471
 21
4.4121589866
 31
0.0
  0
ARC
  5
ED
330
1F
100
AcDbEntity
  8
0
  6
Continuous
 62
     7
370
    30
100
AcDbCircle
 10
7.8790921659
 20
4.4121589862
 30
0.0
 40
0.0250000000000004
100
AcDbArc
 50
270.0
 51
0.0
  0
ARC
  5
EE
330
1F
100
AcDbEntity
  8
0
  6
Continuous
 62
     7
370
    30
100
AcDbCircle
 10
7.8790921659
 20
4.3921589862
 30
0.0
 40
0.0049999999999999
100
AcDbArc
 50
180.0
 51
270.0
  0
LINE
  5
EF
330
1F
100
AcDbEntity
  8
0
  6
Continuous
 62
     7
370
    30
100
AcDbLine
 10
7.8740921204
 20
4.4651589869
 30
0.0
 11
7.8740921204
 21
4.3921589856
 31
0.0
  0
ARC
  5
F0
330
1F
100
AcDbEntity
  8
0
  6
Continuous
 62
     7
370
    30
100
AcDbCircle
 10
7.8890921659
 20
4.4651589862
 30
0.0
 40
0.0150000000000006
100
AcDbArc
 50
90.0
 51
180.0
  0
LINE
  5
F1
330
1F
100
AcDbEntity
  8
0
  6
Continuous
 62
     7
370
    30
100
AcDbLine
 10
7.8890921338
 20
4.4801589865
 30
0.0
 11
8.2090922238
 21
4.4801589865
 31
0.0
  0
ARC
  5
F2
330
1F
100
AcDbEntity
  8
0
  6
Continuous
 62
     7
370
    30
100
AcDbCircle
 10
8.2090921659
 20
4.4951589862
 30
0.0
 40
0.0150000000000006
100
AcDbArc
 50
270.0
 51
0.0
  0
LINE
  5
F3
330
1F
100
AcDbEntity
  8
0
  6
Continuous
 62
     7
370
    30
100
AcDbLine
 10
8.2240922371
 20
4.4951589861
 30
0.0
 11
8.2240922371
 21
5.5026711631
 31
0.0
  0
ARC
  5
F4
330
1F
100
AcDbEntity
  8
0
  6
Continuous
 62
     7
370
    30
100
AcDbCircle
 10
8.1490921659
 20
5.5026711516
 30
0.0
 40
0.075
100
AcDbArc
 50
0.0
 51
83.3002348222
  0
LINE
  5
F5
330
1F
100
AcDbEntity
  8
0
  6
Continuous
 62
     7
370
    30
100
AcDbLine
 10
8.1180921817
 20
5.6218517063
 30
0.0
 11
8.1180921817
 21
5.697158963
 31
0.0
  0
ARC
  5
F6
330
1F
100
AcDbEntity
  8
0
  6
Continuous
 62
     7
370
    30
100
AcDbCircle
 10
8.1280921659
 20
5.6971589862
 30
0.0
 40
0.0099999999999998
100
AcDbArc
 50
90.0
 51
180.0
  0
LINE
  5
F7
330
1F
100
AcDbEntity
  8
0
  6
Continuous
 62
     7
370
    30
100
AcDbLine
 10
8.1280920928
 20
5.7071590208
 30
0.0
 11
8.1345280451
 21
5.7071590208
 31
0.0
  0
LINE
  5
F8
330
1F
100
AcDbEntity
  8
0
  6
Continuous
 62
     7
370
    30
100
AcDbLine
 10
8.1345280451
 20
5.7071590208
 30
0.0
 11
8.1680920307
 21
5.6671589362
 31
0.0
  0
LINE
  5
F9
330
1F
100
AcDbEntity
  8
0
  6
Continuous
 62
     7
370
    30
100
AcDbLine
 10
8.1680920307
 20
5.6671589362
 30
0.0
 11
8.1623800167
 21
5.6347637238
 31
0.0
  0
ARC
  5
FA
330
1F
100
AcDbEntity
  8
0
  6
Continuous
 62
     7
370
    30
100
AcDbCircle
 10
8.1771521208
 20
5.6321589862
 30
0.0
 40
0.0150000000000015
100
AcDbArc
 50
170.0
 51
270.0
  0
LINE
  5
FB
330
1F
100
AcDbEntity
  8
0
  6
Continuous
 62
     7
370
    30
100
AcDbLine
 10
8.1771521127
 20
5.6171590138
 30
0.0
 11
8.2090922238
 21
5.6171590138
 31
0.0
  0
ARC
  5
FC
330
1F
100
AcDbEntity
  8
0
  6
Continuous
 62
     7
370
    30
100
AcDbCircle
 10
8.2090921659
 20
5.6321589862
 30
0.0
 40
0.0150000000000015
100
AcDbArc
 50
270.0
 51
0.0
  0
LINE
  5
FD
330
1F
100
AcDbEntity
  8
0
  6
Continuous
 62
     7
370
    30
100
AcDbLine
 10
8.2240922371
 20
5.6321589539
 30
0.0
 11
8.2240922371
 21
6.2321590493
 31
0.0
  0
ARC
  5
FE
330
1F
100
AcDbEntity
  8
0
  6
Continuous
 62
     7
370
    30
100
AcDbCircle
 10
8.2340921659
 20
6.2321589862
 30
0.0
 40
0.0100000000000016
100
AcDbArc
 50
90.0
 51
180.0
  0
LINE
  5
FF
330
1F
100
AcDbEntity
  8
0
  6
Continuous
 62
     7
370
    30
100
AcDbLine
 10
8.2340921483
 20
6.2421589605
 30
0.0
 11
8.2640921751
 21
6.2421589605
 31
0.0
  0
LINE
  5
100
330
1F
100
AcDbEntity
  8
0
  6
Continuous
 62
     7
370
    30
100
AcDbLine
 10
8.2740920862
 20
6.2321590493
 30
0.0
 11
8.2740920862
 21
5.4411589937
 31
0.0
  0
ARC
  5
101
330
1F
100
AcDbEntity
  8
0
  6
Continuous
 62
     7
370
    30
100
AcDbCircle
 10
8.2890921659
 20
5.4411589862
 30
0.0
 40
0.0150000000000006
100
AcDbArc
 50
180.0
 51
270.0
  0
LINE
  5
102
330
1F
100
AcDbEntity
  8
0
  6
Continuous
 62
     7
370
    30
100
AcDbLine
 10
8.2890920996
 20
5.4261589803
 30
0.0
 11
8.3215921775
 21
5.4261589803
 31
0.0
  0
LINE
  5
103
330
1F
100
AcDbEntity
  8
0
  6
Continuous
 62
     7
370
    30
100
AcDbLine
 10
8.3365921909
 20
5.4411589937
 30
0.0
 11
8.3365921909
 21
5.4799089794
 31
0.0
  0
ARC
  5
104
330
1F
100
AcDbEntity
  8
0
  6
Continuous
 62
     7
370
    30
100
AcDbCircle
 10
8.3515921659
 20
5.4799089862
 30
0.0
 40
0.0150000000000006
100
AcDbArc
 50
90.0
 51
180.0
  0
LINE
  5
105
330
1F
100
AcDbEntity
  8
0
  6
Continuous
 62
     7
370
    30
100
AcDbLine
 10
8.3515922043
 20
5.4949089928
 30
0.0
 11
8.3715920265
 21
5.4949089928
 31
0.0
  0
ARC
  5
106
330
1F
100
AcDbEntity
  8
0
  6
Continuous
 62
     7
370
    30
100
AcDbCircle
 10
8.3715921659
 20
5.4799089862
 30
0.0
 40
0.0149999999999997
100
AcDbArc
 50
0.0
 51
90.0
  0
LINE
  5
107
330
1F
100
AcDbEntity
  8
0
  6
Continuous
 62
     7
370
    30
100
AcDbLine
 10
8.3865920399
 20
5.4799089794
 30
0.0
 11
8.3865920399
 21
5.3224089855
 31
0.0
  0
ARC
  5
108
330
1F
100
AcDbEntity
  8
0
  6
Continuous
 62
     7
370
    30
100
AcDbCircle
 10
8.3715921659
 20
5.3224089862
 30
0.0
 40
0.0150000000000015
100
AcDbArc
 50
270.0
 51
0.0
  0
LINE
  5
109
330
1F
100
AcDbEntity
  8
0
  6
Continuous
 62
     7
370
    30
100
AcDbLine
 10
8.3715920265
 20
5.3074089721
 30
0.0
 11
8.3515922043
 21
5.3074089721
 31
0.0
  0
ARC
  5
10A
330
1F
100
AcDbEntity
  8
0
  6
Continuous
 62
     7
370
    30
100
AcDbCircle
 10
8.3515921659
 20
5.3224089862
 30
0.0
 40
0.0150000000000015
100
AcDbArc
 50
180.0
 51
270.0
  0
LINE
  5
10B
330
1F
100
AcDbEntity
  8
0
  6
Continuous
 62
     7
370
    30
100
AcDbLine
 10
8.3365921909
 20
5.3224089855
 30
0.0
 11
8.3365921909
 21
5.3611589712
 31
0.0
  0
LINE
  5
10C
330
1F
100
AcDbEntity
  8
0
  6
Continuous
 62
     7
370
    30
100
AcDbLine
 10
8.3215921775
 20
5.3761589846
 30
0.0
 11
8.2890920996
 21
5.3761589846
 31
0.0
  0
LINE
  5
10D
330
1F
100
AcDbEntity
  8
0
  6
Continuous
 62
     7
370
    30
100
AcDbLine
 10
8.2740920862
 20
5.3611589712
 30
0.0
 11
8.2740920862
 21
4.766158978
 31
0.0
  0
LINE
  5
10E
330
1F
100
AcDbEntity
  8
0
  6
Continuous
 62
     7
370
    30
100
AcDbLine
 10
8.2890920996
 20
4.7511590013
 30
0.0
 11
8.3215921775
 21
4.7511590013
 31
0.0
  0
LINE
  5
10F
330
1F
100
AcDbEntity
  8
0
  6
Continuous
 62
     7
370
    30
100
AcDbLine
 10
8.3365921909
 20
4.766158978
 30
0.0
 11
8.3365921909
 21
4.8049090004
 31
0.0
  0
ARC
  5
110
330
1F
100
AcDbEntity
  8
0
  6
Continuous
 62
     7
370
    30
100
AcDbCircle
 10
8.3515921659
 20
4.8049089862
 30
0.0
 40
0.0149999999999997
100
AcDbArc
 50
90.0
 51
180.0
  0
LINE
  5
111
330
1F
100
AcDbEntity
  8
0
  6
Continuous
 62
     7
370
    30
100
AcDbLine
 10
8.3515922043
 20
4.8199089771
 30
0.0
 11
8.3715920265
 21
4.8199089771
 31
0.0
  0
ARC
  5
112
330
1F
100
AcDbEntity
  8
0
  6
Continuous
 62
     7
370
    30
100
AcDbCircle
 10
8.3715921659
 20
4.8049089862
 30
0.0
 40
0.0149999999999997
100
AcDbArc
 50
0.0
 51
90.0
  0
LINE
  5
113
330
1F
100
AcDbEntity
  8
0
  6
Continuous
 62
     7
370
    30
100
AcDbLine
 10
8.3865920399
 20
4.8049090004
 30
0.0
 11
8.3865920399
 21
4.7161589823
 31
0.0
  0
ARC
  5
114
330
1F
100
AcDbEntity
  8
0
  6
Continuous
 62
     7
370
    30
100
AcDbCircle
 10
8.3715921659
 20
4.7161589862
 30
0.0
 40
0.0149999999999997
100
AcDbArc
 50
270.0
 51
0.0
  0
ARC
  5
115
330
1F
100
AcDbEntity
  8
0
  6
Continuous
 62
     7
370
    30
100
AcDbCircle
 10
8.2890921659
 20
4.6861589862
 30
0.0
 40
0.0150000000000006
100
AcDbArc
 50
90.0
 51
180.0
  0
LINE
  5
116
330
1F
100
AcDbEntity
  8
0
  6
Continuous
 62
     7
370
    30
100
AcDbLine
 10
8.2740920862
 20
4.6861589922
 30
0.0
 11
8.2740920862
 21
4.4951589861
 31
0.0
  0
LINE
  5
117
330
1F
100
AcDbEntity
  8
0
  6
Continuous
 62
     7
370
    30
100
AcDbLine
 10
8.2890920996
 20
4.4801589865
 30
0.0
 11
9.4840921882
 21
4.4801589865
 31
0.0
  0
LINE
  5
118
330
1F
100
AcDbEntity
  8
0
  6
Continuous
 62
     7
370
    30
100
AcDbLine
 10
9.4990922016
 20
4.4651589869
 30
0.0
 11
9.4990922016
 21
4.454957283
 31
0.0
  0
ARC
  5
119
330
1F
100
AcDbEntity
  8
0
  6
Continuous
 62
     7
370
    30
100
AcDbCircle
 10
8.1630921659
 20
5.6218516869
 30
0.0
 40
0.0449999999999985
100
AcDbArc
 50
180.0
 51
263.3002348222
  0
ARC
  5
11A
330
1F
100
AcDbEntity
  8
0
  6
Continuous
 62
     7
370
    30
100
AcDbCircle
 10
8.2640921659
 20
6.2321589862
 30
0.0
 40
0.0100000000000007
100
AcDbArc
 50
0.0
 51
90.0
  0
LINE
  5
11B
330
1F
100
AcDbEntity
  8
0
  6
Continuous
 62
     7
370
    30
100
AcDbLine
 10
8.3715920265
 20
4.7011589872
 30
0.0
 11
8.2890920996
 21
4.7011589872
 31
0.0
  0
ARC
  5
11C
330
1F
100
AcDbEntity
  8
0
  6
Continuous
 62
     7
370
    30
100
AcDbCircle
 10
8.2890921659
 20
4.7661589862
 30
0.0
 40
0.0150000000000006
100
AcDbArc
 50
180.0
 51
270.0
  0
ARC
  5
11D
330
1F
100
AcDbEntity
  8
0
  6
Continuous
 62
     7
370
    30
100
AcDbCircle
 10
8.3215921659
 20
4.7661589862
 30
0.0
 40
0.0150000000000006
100
AcDbArc
 50
270.0
 51
0.0
  0
ARC
  5
11E
330
1F
100
AcDbEntity
  8
0
  6
Continuous
 62
     7
370
    30
100
AcDbCircle
 10
9.4840921659
 20
4.4651589862
 30
0.0
 40
0.0150000000000006
100
AcDbArc
 50
0.0
 51
90.0
  0
ARC
  5
11F
330
1F
100
AcDbEntity
  8
0
  6
Continuous
 62
     7
370
    30
100
AcDbCircle
 10
8.3215921659
 20
5.4411589862
 30
0.0
 40
0.0150000000000006
100
AcDbArc
 50
270.0
 51
0.0
  0
ARC
  5
120
330
1F
100
AcDbEntity
  8
0
  6
Continuous
 62
     7
370
    30
100
AcDbCircle
 10
9.4840921659
 20
4.4549572839
 30
0.0
 40
0.0150000000000002
100
AcDbArc
 50
270.77564932
 51
0.0
  0
ARC
  5
121
330
1F
100
AcDbEntity
  8
0
  6
Continuous
 62
     7
370
    30
100
AcDbCircle
 10
8.2890921659
 20
5.3611589862
 30
0.0
 40
0.0150000000000006
100
AcDbArc
 50
90.0
 51
180.0
  0
ARC
  5
122
330
1F
100
AcDbEntity
  8
0
  6
Continuous
 62
     7
370
    30
100
AcDbCircle
 10
8.3215921659
 20
5.3611589862
 30
0.0
 40
0.0150000000000006
100
AcDbArc
 50
0.0
 51
90.0
  0
ARC
  5
123
330
1F
100
AcDbEntity
  8
0
  6
Continuous
 62
     7
370
    30
100
AcDbCircle
 10
8.2890921659
 20
4.4951589862
 30
0.0
 40
0.0150000000000006
100
AcDbArc
 50
180.0
 51
270.0
  0
LINE
  5
124
330
1F
100
AcDbEntity
  8
0
  6
Continuous
 62
     7
370
    30
100
AcDbLine
 10
7.1428290747
 20
5.4917664757
 30
0.0
 11
7.1397231505
 21
5.480175323
 31
0.0
  0
LINE
  5
125
330
1F
100
AcDbEntity
  8
0
  6
Continuous
 62
     7
370
    30
100
AcDbLine
 10
7.1882274569
 20
5.4796019363
 30
0.0
 11
7.1428290747
 21
5.4917664757
 31
0.0
  0
ARC
  5
126
330
1F
100
AcDbEntity
  8
0
  6
Continuous
 62
     7
370
    30
100
AcDbCircle
 10
7.1915921659
 20
5.4921589862
 30
0.0
 40
0.0130000000000026
100
AcDbArc
 50
255.0
 51
90.0
  0
LINE
  5
127
330
1F
100
AcDbEntity
  8
0
  6
Continuous
 62
     7
370
    30
100
AcDbLine
 10
7.1590921668
 20
5.5051589677
 30
0.0
 11
7.191592098
 21
5.5051589677
 31
0.0
  0
ARC
  5
128
330
1F
100
AcDbEntity
  8
0
  6
Continuous
 62
     7
370
    30
100
AcDbCircle
 10
7.1590921659
 20
5.5981589862
 30
0.0
 40
0.0930000000000014
100
AcDbArc
 50
109.6973630774
 51
270.0
  0
LINE
  5
129
330
1F
100
AcDbEntity
  8
0
  6
Continuous
 62
     7
370
    30
100
AcDbLine
 10
7.2457292193
 20
5.7279550873
 30
0.0
 11
7.1277463422
 21
5.6857171885
 31
0.0
  0
ARC
  5
12A
330
1F
100
AcDbEntity
  8
0
  6
Continuous
 62
     7
370
    30
100
AcDbCircle
 10
7.2416845554
 20
5.7392528697
 30
0.0
 40
0.0120000000000001
100
AcDbArc
 50
289.6973630774
 51
322.2281218619
  0
ARC
  5
12B
330
1F
100
AcDbEntity
  8
0
  6
Continuous
 62
     7
370
    30
100
AcDbCircle
 10
7.3740921659
 20
5.6366510497
 30
0.0
 40
0.1555079365079416
100
AcDbArc
 50
37.7718781381
 51
142.2281218619
  0
ARC
  5
12C
330
1F
100
AcDbEntity
  8
0
  6
Continuous
 62
     7
370
    30
100
AcDbCircle
 10
7.5064997764
 20
5.7392528697
 30
0.0
 40
0.0120000000000004
100
AcDbArc
 50
217.7718781381
 51
250.3026369226
  0
LINE
  5
12D
330
1F
100
AcDbEntity
  8
0
  6
Continuous
 62
     7
370
    30
100
AcDbLine
 10
7.6204379839
 20
5.6857171885
 30
0.0
 11
7.5024551069
 21
5.7279550873
 31
0.0
  0
ARC
  5
12E
330
1F
100
AcDbEntity
  8
0
  6
Continuous
 62
     7
370
    30
100
AcDbCircle
 10
7.5890921659
 20
5.5981589862
 30
0.0
 40
0.0930000000000026
100
AcDbArc
 50
270.0
 51
70.3026369226
  0
LINE
  5
12F
330
1F
100
AcDbEntity
  8
0
  6
Continuous
 62
     7
370
    30
100
AcDbLine
 10
7.5565922282
 20
5.5051589677
 30
0.0
 11
7.5890921594
 21
5.5051589677
 31
0.0
  0
LINE
  5
130
330
1F
100
AcDbEntity
  8
0
  6
Continuous
 62
     7
370
    30
100
AcDbLine
 10
7.6053553982
 20
5.4917664757
 30
0.0
 11
7.5599568693
 21
5.4796019363
 31
0.0
  0
LINE
  5
131
330
1F
100
AcDbEntity
  8
0
  6
Continuous
 62
     7
370
    30
100
AcDbLine
 10
7.6084611756
 20
5.480175323
 30
0.0
 11
7.6053553982
 21
5.4917664757
 31
0.0
  0
LINE
  5
132
330
1F
100
AcDbEntity
  8
0
  6
Continuous
 62
     7
370
    30
100
AcDbLine
 10
7.6084611756
 20
5.480175323
 30
0.0
 11
7.5630626467
 21
5.4680108568
 31
0.0
  0
ARC
  5
133
330
1F
100
AcDbEntity
  8
0
  6
Continuous
 62
     7
370
    30
100
AcDbCircle
 10
7.5565921659
 20
5.4921589862
 30
0.0
 40
0.0250000000000012
100
AcDbArc
 50
90.0
 51
285.0
  0
LINE
  5
134
330
1F
100
AcDbEntity
  8
0
  6
Continuous
 62
     7
370
    30
100
AcDbLine
 10
7.5565922282
 20
5.5171590224
 30
0.0
 11
7.5890921594
 21
5.5171590224
 31
0.0
  0
ARC
  5
135
330
1F
100
AcDbEntity
  8
0
  6
Continuous
 62
     7
370
    30
100
AcDbCircle
 10
7.5890921659
 20
5.5981589862
 30
0.0
 40
0.0810000000000031
100
AcDbArc
 50
270.0
 51
70.3026369226
  0
LINE
  5
136
330
1F
100
AcDbEntity
  8
0
  6
Continuous
 62
     7
370
    30
100
AcDbLine
 10
7.616393404
 20
5.6744192924
 30
0.0
 11
7.4984105269
 21
5.7166571911
 31
0.0
  0
ARC
  5
137
330
1F
100
AcDbEntity
  8
0
  6
Continuous
 62
     7
370
    30
100
AcDbCircle
 10
7.5064997764
 20
5.7392528697
 30
0.0
 40
0.0240000000000032
100
AcDbArc
 50
217.7718781381
 51
250.3026369226
  0
ARC
  5
138
330
1F
100
AcDbEntity
  8
0
  6
Continuous
 62
     7
370
    30
100
AcDbCircle
 10
7.3740921659
 20
5.6366510497
 30
0.0
 40
0.1435079365079394
100
AcDbArc
 50
37.7718781381
 51
142.2281218619
  0
ARC
  5
139
330
1F
100
AcDbEntity
  8
0
  6
Continuous
 62
     7
370
    30
100
AcDbCircle
 10
7.2416845554
 20
5.7392528697
 30
0.0
 40
0.0240000000000023
100
AcDbArc
 50
289.6973630774
 51
322.2281218619
  0
LINE
  5
13A
330
1F
100
AcDbEntity
  8
0
  6
Continuous
 62
     7
370
    30
100
AcDbLine
 10
7.2497737992
 20
5.7166571911
 30
0.0
 11
7.1317909222
 21
5.6744192924
 31
0.0
  0
ARC
  5
13B
330
1F
100
AcDbEntity
  8
0
  6
Continuous
 62
     7
370
    30
100
AcDbCircle
 10
7.1590921659
 20
5.5981589862
 30
0.0
 40
0.0810000000000005
100
AcDbArc
 50
109.6973630774
 51
270.0
  0
LINE
  5
13C
330
1F
100
AcDbEntity
  8
0
  6
Continuous
 62
     7
370
    30
100
AcDbLine
 10
7.1590921668
 20
5.5171590224
 30
0.0
 11
7.191592098
 21
5.5171590224
 31
0.0
  0
ARC
  5
13D
330
1F
100
AcDbEntity
  8
0
  6
Continuous
 62
     7
370
    30
100
AcDbCircle
 10
7.1915921659
 20
5.4921589862
 30
0.0
 40
0.0250000000000021
100
AcDbArc
 50
255.0
 51
90.0
  0
LINE
  5
13E
330
1F
100
AcDbEntity
  8
0
  6
Continuous
 62
     7
370
    30
100
AcDbLine
 10
7.1851216794
 20
5.4680108568
 30
0.0
 11
7.1397231505
 21
5.480175323
 31
0.0
  0
ARC
  5
13F
330
1F
100
AcDbEntity
  8
0
  6
Continuous
 62
     7
370
    30
100
AcDbCircle
 10
7.5565921659
 20
5.4921589862
 30
0.0
 40
0.0130000000000004
100
AcDbArc
 50
90.0
 51
285.0
  0
LINE
  5
140
330
1F
100
AcDbEntity
  8
0
  6
Continuous
 62
     7
370
    30
100
AcDbLine
 10
3.6428289336
 20
5.4917664757
 30
0.0
 11
3.6397231562
 21
5.480175323
 31
0.0
  0
LINE
  5
141
330
1F
100
AcDbEntity
  8
0
  6
Continuous
 62
     7
370
    30
100
AcDbLine
 10
3.6882274625
 20
5.4796019363
 30
0.0
 11
3.6428289336
 21
5.4917664757
 31
0.0
  0
ARC
  5
142
330
1F
100
AcDbEntity
  8
0
  6
Continuous
 62
     7
370
    30
100
AcDbCircle
 10
3.6915921659
 20
5.4921589862
 30
0.0
 40
0.0130000000000017
100
AcDbArc
 50
255.0
 51
90.0
  0
LINE
  5
143
330
1F
100
AcDbEntity
  8
0
  6
Continuous
 62
     7
370
    30
100
AcDbLine
 10
3.6590921724
 20
5.5051589677
 30
0.0
 11
3.6915921036
 21
5.5051589677
 31
0.0
  0
ARC
  5
144
330
1F
100
AcDbEntity
  8
0
  6
Continuous
 62
     7
370
    30
100
AcDbCircle
 10
3.6590921659
 20
5.5981589862
 30
0.0
 40
0.0930000000000017
100
AcDbArc
 50
109.6973630774
 51
270.0
  0
LINE
  5
145
330
1F
100
AcDbEntity
  8
0
  6
Continuous
 62
     7
370
    30
100
AcDbLine
 10
3.7457292249
 20
5.7279550873
 30
0.0
 11
3.6277463479
 21
5.6857171885
 31
0.0
  0
ARC
  5
146
330
1F
100
AcDbEntity
  8
0
  6
Continuous
 62
     7
370
    30
100
AcDbCircle
 10
3.7416845554
 20
5.7392528697
 30
0.0
 40
0.0120000000000006
100
AcDbArc
 50
289.6973630774
 51
322.2281218619
  0
ARC
  5
147
330
1F
100
AcDbEntity
  8
0
  6
Continuous
 62
     7
370
    30
100
AcDbCircle
 10
3.8740921659
 20
5.6366510497
 30
0.0
 40
0.1555079365079421
100
AcDbArc
 50
37.7718781381
 51
142.2281218619
  0
ARC
  5
148
330
1F
100
AcDbEntity
  8
0
  6
Continuous
 62
     7
370
    30
100
AcDbCircle
 10
4.0064997764
 20
5.7392528697
 30
0.0
 40
0.0120000000000009
100
AcDbArc
 50
217.7718781381
 51
250.3026369226
  0
LINE
  5
149
330
1F
100
AcDbEntity
  8
0
  6
Continuous
 62
     7
370
    30
100
AcDbLine
 10
4.1204379896
 20
5.6857171885
 30
0.0
 11
4.0024551125
 21
5.7279550873
 31
0.0
  0
ARC
  5
14A
330
1F
100
AcDbEntity
  8
0
  6
Continuous
 62
     7
370
    30
100
AcDbCircle
 10
4.0890921659
 20
5.5981589862
 30
0.0
 40
0.0930000000000017
100
AcDbArc
 50
270.0
 51
70.3026369226
  0
LINE
  5
14B
330
1F
100
AcDbEntity
  8
0
  6
Continuous
 62
     7
370
    30
100
AcDbLine
 10
4.0565922338
 20
5.5051589677
 30
0.0
 11
4.089092165
 21
5.5051589677
 31
0.0
  0
ARC
  5
14C
330
1F
100
AcDbEntity
  8
0
  6
Continuous
 62
     7
370
    30
100
AcDbCircle
 10
4.0565921659
 20
5.4921589862
 30
0.0
 40
0.0129999999999999
100
AcDbArc
 50
90.0
 51
285.0
  0
LINE
  5
14D
330
1F
100
AcDbEntity
  8
0
  6
Continuous
 62
     7
370
    30
100
AcDbLine
 10
4.1053552571
 20
5.4917664757
 30
0.0
 11
4.0599568749
 21
5.4796019363
 31
0.0
  0
LINE
  5
14E
330
1F
100
AcDbEntity
  8
0
  6
Continuous
 62
     7
370
    30
100
AcDbLine
 10
4.1084611813
 20
5.480175323
 30
0.0
 11
4.1053552571
 21
5.4917664757
 31
0.0
  0
LINE
  5
14F
330
1F
100
AcDbEntity
  8
0
  6
Continuous
 62
     7
370
    30
100
AcDbLine
 10
4.1084611813
 20
5.480175323
 30
0.0
 11
4.0630626524
 21
5.4680108568
 31
0.0
  0
ARC
  5
150
330
1F
100
AcDbEntity
  8
0
  6
Continuous
 62
     7
370
    30
100
AcDbCircle
 10
4.0565921659
 20
5.4921589862
 30
0.0
 40
0.0250000000000006
100
AcDbArc
 50
90.0
 51
285.0
  0
LINE
  5
151
330
1F
100
AcDbEntity
  8
0
  6
Continuous
 62
     7
370
    30
100
AcDbLine
 10
4.0565922338
 20
5.5171590224
 30
0.0
 11
4.089092165
 21
5.5171590224
 31
0.0
  0
ARC
  5
152
330
1F
100
AcDbEntity
  8
0
  6
Continuous
 62
     7
370
    30
100
AcDbCircle
 10
4.0890921659
 20
5.5981589862
 30
0.0
 40
0.0810000000000031
100
AcDbArc
 50
270.0
 51
70.3026369226
  0
LINE
  5
153
330
1F
100
AcDbEntity
  8
0
  6
Continuous
 62
     7
370
    30
100
AcDbLine
 10
4.1163934096
 20
5.6744192924
 30
0.0
 11
3.9984105326
 21
5.7166571911
 31
0.0
  0
ARC
  5
154
330
1F
100
AcDbEntity
  8
0
  6
Continuous
 62
     7
370
    30
100
AcDbCircle
 10
4.0064997764
 20
5.7392528697
 30
0.0
 40
0.0240000000000033
100
AcDbArc
 50
217.7718781381
 51
250.3026369226
  0
ARC
  5
155
330
1F
100
AcDbEntity
  8
0
  6
Continuous
 62
     7
370
    30
100
AcDbCircle
 10
3.8740921659
 20
5.6366510497
 30
0.0
 40
0.1435079365079396
100
AcDbArc
 50
37.7718781381
 51
142.2281218619
  0
ARC
  5
156
330
1F
100
AcDbEntity
  8
0
  6
Continuous
 62
     7
370
    30
100
AcDbCircle
 10
3.7416845554
 20
5.7392528697
 30
0.0
 40
0.024000000000003
100
AcDbArc
 50
289.6973630774
 51
322.2281218619
  0
LINE
  5
157
330
1F
100
AcDbEntity
  8
0
  6
Continuous
 62
     7
370
    30
100
AcDbLine
 10
3.7497738049
 20
5.7166571911
 30
0.0
 11
3.6317909278
 21
5.6744192924
 31
0.0
  0
ARC
  5
158
330
1F
100
AcDbEntity
  8
0
  6
Continuous
 62
     7
370
    30
100
AcDbCircle
 10
3.6590921659
 20
5.5981589862
 30
0.0
 40
0.0810000000000013
100
AcDbArc
 50
109.6973630774
 51
270.0
  0
LINE
  5
159
330
1F
100
AcDbEntity
  8
0
  6
Continuous
 62
     7
370
    30
100
AcDbLine
 10
3.6590921724
 20
5.5171590224
 30
0.0
 11
3.6915921036
 21
5.5171590224
 31
0.0
  0
ARC
  5
15A
330
1F
100
AcDbEntity
  8
0
  6
Continuous
 62
     7
370
    30
100
AcDbCircle
 10
3.6915921659
 20
5.4921589862
 30
0.0
 40
0.0250000000000021
100
AcDbArc
 50
255.0
 51
90.0
  0
LINE
  5
15B
330
1F
100
AcDbEntity
  8
0
  6
Continuous
 62
     7
370
    30
100
AcDbLine
 10
3.6851216851
 20
5.4680108568
 30
0.0
 11
3.6397231562
 21
5.480175323
 31
0.0
  0
LINE
  5
15C
330
1F
100
AcDbEntity
  8
0
  6
Continuous
 62
     7
370
    30
100
AcDbLine
 10
5.3928290041
 20
5.4917664757
 30
0.0
 11
5.3897231717
 21
5.480175323
 31
0.0
  0
LINE
  5
15D
330
1F
100
AcDbEntity
  8
0
  6
Continuous
 62
     7
370
    30
100
AcDbLine
 10
5.4382275147
 20
5.4796019363
 30
0.0
 11
5.3928290041
 21
5.4917664757
 31
0.0
  0
ARC
  5
15E
330
1F
100
AcDbEntity
  8
0
  6
Continuous
 62
     7
370
    30
100
AcDbCircle
 10
5.4415921659
 20
5.4921589862
 30
0.0
 40
0.0130000000000026
100
AcDbArc
 50
255.0
 51
90.0
  0
LINE
  5
15F
330
1F
100
AcDbEntity
  8
0
  6
Continuous
 62
     7
370
    30
100
AcDbLine
 10
5.4090921696
 20
5.5051589677
 30
0.0
 11
5.4415921742
 21
5.5051589677
 31
0.0
  0
ARC
  5
160
330
1F
100
AcDbEntity
  8
0
  6
Continuous
 62
     7
370
    30
100
AcDbCircle
 10
5.4090921659
 20
5.5981589862
 30
0.0
 40
0.0930000000000017
100
AcDbArc
 50
109.6973630774
 51
270.0
  0
LINE
  5
161
330
1F
100
AcDbEntity
  8
0
  6
Continuous
 62
     7
370
    30
100
AcDbLine
 10
5.4957291763
 20
5.7279550873
 30
0.0
 11
5.377746345
 21
5.6857171885
 31
0.0
  0
ARC
  5
162
330
1F
100
AcDbEntity
  8
0
  6
Continuous
 62
     7
370
    30
100
AcDbCircle
 10
5.4916845554
 20
5.7392528697
 30
0.0
 40
0.0120000000000003
100
AcDbArc
 50
289.6973630774
 51
322.2281218619
  0
ARC
  5
163
330
1F
100
AcDbEntity
  8
0
  6
Continuous
 62
     7
370
    30
100
AcDbCircle
 10
5.6240921659
 20
5.6366510497
 30
0.0
 40
0.1555079365079434
100
AcDbArc
 50
37.7718781381
 51
142.2281218619
  0
ARC
  5
164
330
1F
100
AcDbEntity
  8
0
  6
Continuous
 62
     7
370
    30
100
AcDbCircle
 10
5.7564997764
 20
5.7392528697
 30
0.0
 40
0.0120000000000009
100
AcDbArc
 50
217.7718781381
 51
250.3026369226
  0
LINE
  5
165
330
1F
100
AcDbEntity
  8
0
  6
Continuous
 62
     7
370
    30
100
AcDbLine
 10
5.8704379868
 20
5.6857171885
 30
0.0
 11
5.7524551555
 21
5.7279550873
 31
0.0
  0
ARC
  5
166
330
1F
100
AcDbEntity
  8
0
  6
Continuous
 62
     7
370
    30
100
AcDbCircle
 10
5.8390921659
 20
5.5981589862
 30
0.0
 40
0.0930000000000026
100
AcDbArc
 50
270.0
 51
70.3026369226
  0
LINE
  5
167
330
1F
100
AcDbEntity
  8
0
  6
Continuous
 62
     7
370
    30
100
AcDbLine
 10
5.8065921576
 20
5.5051589677
 30
0.0
 11
5.8390921622
 21
5.5051589677
 31
0.0
  0
LINE
  5
168
330
1F
100
AcDbEntity
  8
0
  6
Continuous
 62
     7
370
    30
100
AcDbLine
 10
5.8584611601
 20
5.480175323
 30
0.0
 11
5.8553553277
 21
5.4917664757
 31
0.0
  0
LINE
  5
169
330
1F
100
AcDbEntity
  8
0
  6
Continuous
 62
     7
370
    30
100
AcDbLine
 10
5.8584611601
 20
5.480175323
 30
0.0
 11
5.8130626496
 21
5.4680108568
 31
0.0
  0
ARC
  5
16A
330
1F
100
AcDbEntity
  8
0
  6
Continuous
 62
     7
370
    30
100
AcDbCircle
 10
5.8065921659
 20
5.4921589862
 30
0.0
 40
0.0250000000000006
100
AcDbArc
 50
90.0
 51
285.0
  0
LINE
  5
16B
330
1F
100
AcDbEntity
  8
0
  6
Continuous
 62
     7
370
    30
100
AcDbLine
 10
5.8065921576
 20
5.5171590224
 30
0.0
 11
5.8390921622
 21
5.5171590224
 31
0.0
  0
ARC
  5
16C
330
1F
100
AcDbEntity
  8
0
  6
Continuous
 62
     7
370
    30
100
AcDbCircle
 10
5.8390921659
 20
5.5981589862
 30
0.0
 40
0.0810000000000031
100
AcDbArc
 50
270.0
 51
70.3026369226
  0
LINE
  5
16D
330
1F
100
AcDbEntity
  8
0
  6
Continuous
 62
     7
370
    30
100
AcDbLine
 10
5.8663933701
 20
5.6744192924
 30
0.0
 11
5.7484105298
 21
5.7166571911
 31
0.0
  0
ARC
  5
16E
330
1F
100
AcDbEntity
  8
0
  6
Continuous
 62
     7
370
    30
100
AcDbCircle
 10
5.7564997764
 20
5.7392528697
 30
0.0
 40
0.0240000000000035
100
AcDbArc
 50
217.7718781381
 51
250.3026369226
  0
ARC
  5
16F
330
1F
100
AcDbEntity
  8
0
  6
Continuous
 62
     7
370
    30
100
AcDbCircle
 10
5.6240921659
 20
5.6366510497
 30
0.0
 40
0.1435079365079397
100
AcDbArc
 50
37.7718781381
 51
142.2281218619
  0
ARC
  5
170
330
1F
100
AcDbEntity
  8
0
  6
Continuous
 62
     7
370
    30
100
AcDbCircle
 10
5.4916845554
 20
5.7392528697
 30
0.0
 40
0.0240000000000029
100
AcDbArc
 50
289.6973630774
 51
322.2281218619
  0
LINE
  5
171
330
1F
100
AcDbEntity
  8
0
  6
Continuous
 62
     7
370
    30
100
AcDbLine
 10
5.499773802
 20
5.7166571911
 30
0.0
 11
5.3817909616
 21
5.6744192924
 31
0.0
  0
ARC
  5
172
330
1F
100
AcDbEntity
  8
0
  6
Continuous
 62
     7
370
    30
100
AcDbCircle
 10
5.4090921659
 20
5.5981589862
 30
0.0
 40
0.0810000000000022
100
AcDbArc
 50
109.6973630774
 51
270.0
  0
LINE
  5
173
330
1F
100
AcDbEntity
  8
0
  6
Continuous
 62
     7
370
    30
100
AcDbLine
 10
5.4090921696
 20
5.5171590224
 30
0.0
 11
5.4415921742
 21
5.5171590224
 31
0.0
  0
ARC
  5
174
330
1F
100
AcDbEntity
  8
0
  6
Continuous
 62
     7
370
    30
100
AcDbCircle
 10
5.4415921659
 20
5.4921589862
 30
0.0
 40
0.0250000000000021
100
AcDbArc
 50
255.0
 51
90.0
  0
LINE
  5
175
330
1F
100
AcDbEntity
  8
0
  6
Continuous
 62
     7
370
    30
100
AcDbLine
 10
5.4351216822
 20
5.4680108568
 30
0.0
 11
5.3897231717
 21
5.480175323
 31
0.0
  0
LINE
  5
176
330
1F
100
AcDbEntity
  8
0
  6
Continuous
 62
     7
370
    30
100
AcDbLine
 10
5.8553553277
 20
5.4917664757
 30
0.0
 11
5.8099568171
 21
5.4796019363
 31
0.0
  0
ARC
  5
177
330
1F
100
AcDbEntity
  8
0
  6
Continuous
 62
     7
370
    30
100
AcDbCircle
 10
5.8065921659
 20
5.4921589862
 30
0.0
 40
0.0129999999999999
100
AcDbArc
 50
90.0
 51
285.0
  0
ARC
  5
178
330
1F
100
AcDbEntity
  8
0
  6
Continuous
 62
     7
370
    30
100
AcDbCircle
 10
5.7820921659
 20
5.4049795735
 30
0.0
 40
0.032
100
AcDbArc
 50
0.0
 51
60.1644397768
  0
LINE
  5
179
330
1F
100
AcDbEntity
  8
0
  6
Continuous
 62
     7
370
    30
100
AcDbLine
 10
5.8140921643
 20
5.2871590127
 30
0.0
 11
5.8140921643
 21
5.404979605
 31
0.0
  0
ARC
  5
17A
330
1F
100
AcDbEntity
  8
0
  6
Continuous
 62
     7
370
    30
100
AcDbCircle
 10
6.0820921659
 20
5.2871589862
 30
0.0
 40
0.268
100
AcDbArc
 50
180.0
 51
243.2145316219
  0
ARC
  5
17B
330
1F
100
AcDbEntity
  8
0
  6
Continuous
 62
     7
370
    30
100
AcDbCircle
 10
5.9410383577
 20
5.0077438413
 30
0.0
 40
0.0449999999999995
100
AcDbArc
 50
351.9770130931
 51
63.2145316219
  0
ARC
  5
17C
330
1F
100
AcDbEntity
  8
0
  6
Continuous
 62
     7
370
    30
100
AcDbCircle
 10
5.6320921659
 20
5.0512898006
 30
0.0
 40
0.3570000000000006
100
AcDbArc
 50
278.8498830984
 51
351.9770130931
  0
ARC
  5
17D
330
1F
100
AcDbEntity
  8
0
  6
Continuous
 62
     7
370
    30
100
AcDbCircle
 10
5.6820921659
 20
4.7301589862
 30
0.0
 40
0.032
100
AcDbArc
 50
180.0
 51
278.8498830984
  0
LINE
  5
17E
330
1F
100
AcDbEntity
  8
0
  6
Continuous
 62
     7
370
    30
100
AcDbLine
 10
5.6500921668
 20
4.8601589788
 30
0.0
 11
5.6500921668
 21
4.7301589789
 31
0.0
  0
LINE
  5
17F
330
1F
100
AcDbEntity
  8
0
  6
Continuous
 62
     7
370
    30
100
AcDbLine
 10
5.6500921668
 20
4.8601589788
 30
0.0
 11
5.6320921661
 21
4.8601589788
 31
0.0
  0
LINE
  5
180
330
1F
100
AcDbEntity
  8
0
  6
Continuous
 62
     7
370
    30
100
AcDbLine
 10
5.6320921661
 20
4.8601589788
 30
0.0
 11
5.6320921661
 21
4.7301589789
 31
0.0
  0
ARC
  5
181
330
1F
100
AcDbEntity
  8
0
  6
Continuous
 62
     7
370
    30
100
AcDbCircle
 10
5.6820921659
 20
4.7301589862
 30
0.0
 40
0.0499999999999995
100
AcDbArc
 50
180.0
 51
278.8498830984
  0
ARC
  5
182
330
1F
100
AcDbEntity
  8
0
  6
Continuous
 62
     7
370
    30
100
AcDbCircle
 10
5.6320921659
 20
5.0512898006
 30
0.0
 40
0.3750000000000005
100
AcDbArc
 50
278.8498830984
 51
351.9770130931
  0
ARC
  5
183
330
1F
100
AcDbEntity
  8
0
  6
Continuous
 62
     7
370
    30
100
AcDbCircle
 10
5.9410383577
 20
5.0077438413
 30
0.0
 40
0.0629999999999997
100
AcDbArc
 50
351.9770130931
 51
63.2145316219
  0
ARC
  5
184
330
1F
100
AcDbEntity
  8
0
  6
Continuous
 62
     7
370
    30
100
AcDbCircle
 10
6.0820921659
 20
5.2871589862
 30
0.0
 40
0.25
100
AcDbArc
 50
180.0
 51
243.2145316219
  0
LINE
  5
185
330
1F
100
AcDbEntity
  8
0
  6
Continuous
 62
     7
370
    30
100
AcDbLine
 10
5.8320921731
 20
5.2871590127
 30
0.0
 11
5.8320921731
 21
5.404979605
 31
0.0
  0
ARC
  5
186
330
1F
100
AcDbEntity
  8
0
  6
Continuous
 62
     7
370
    30
100
AcDbCircle
 10
5.7820921659
 20
5.4049795735
 30
0.0
 40
0.0499999999999996
100
AcDbArc
 50
0.0
 51
60.1644397768
  0
ARC
  5
187
330
1F
100
AcDbEntity
  8
0
  6
Continuous
 62
     7
370
    30
100
AcDbCircle
 10
5.8320921659
 20
5.4921589862
 30
0.0
 40
0.0504999999999999
100
AcDbArc
 50
70.0
 51
240.1644397768
  0
LINE
  5
188
330
1F
100
AcDbEntity
  8
0
  6
Continuous
 62
     7
370
    30
100
AcDbLine
 10
5.8493641919
 20
5.5396134297
 30
0.0
 11
5.8555205458
 21
5.5565279343
 31
0.0
  0
ARC
  5
189
330
1F
100
AcDbEntity
  8
0
  6
Continuous
 62
     7
370
    30
100
AcDbCircle
 10
5.8320921659
 20
5.4921589862
 30
0.0
 40
0.0685000000000007
100
AcDbArc
 50
70.0
 51
240.1644397768
  0
LINE
  5
18A
330
1F
100
AcDbEntity
  8
0
  6
Continuous
 62
     7
370
    30
100
AcDbLine
 10
7.1488201921
 20
5.5396134297
 30
0.0
 11
7.1426637832
 21
5.5565279343
 31
0.0
  0
ARC
  5
18B
330
1F
100
AcDbEntity
  8
0
  6
Continuous
 62
     7
370
    30
100
AcDbCircle
 10
7.1660921659
 20
5.4921589862
 30
0.0
 40
0.0685000000000007
100
AcDbArc
 50
299.8355602232
 51
110.0
  0
ARC
  5
18C
330
1F
100
AcDbEntity
  8
0
  6
Continuous
 62
     7
370
    30
100
AcDbCircle
 10
7.2160921659
 20
5.4049795735
 30
0.0
 40
0.032
100
AcDbArc
 50
119.8355602232
 51
180.0
  0
LINE
  5
18D
330
1F
100
AcDbEntity
  8
0
  6
Continuous
 62
     7
370
    30
100
AcDbLine
 10
7.184092238
 20
5.2871590127
 30
0.0
 11
7.184092238
 21
5.404979605
 31
0.0
  0
ARC
  5
18E
330
1F
100
AcDbEntity
  8
0
  6
Continuous
 62
     7
370
    30
100
AcDbCircle
 10
6.9160921659
 20
5.2871589862
 30
0.0
 40
0.2679999999999996
100
AcDbArc
 50
296.7854683781
 51
0.0
  0
ARC
  5
18F
330
1F
100
AcDbEntity
  8
0
  6
Continuous
 62
     7
370
    30
100
AcDbCircle
 10
7.0571459741
 20
5.0077438413
 30
0.0
 40
0.0450000000000003
100
AcDbArc
 50
116.7854683781
 51
188.0229869069
  0
ARC
  5
190
330
1F
100
AcDbEntity
  8
0
  6
Continuous
 62
     7
370
    30
100
AcDbCircle
 10
7.3660921659
 20
5.0512898006
 30
0.0
 40
0.3570000000000007
100
AcDbArc
 50
188.0229869069
 51
261.1501169016
  0
ARC
  5
191
330
1F
100
AcDbEntity
  8
0
  6
Continuous
 62
     7
370
    30
100
AcDbCircle
 10
7.3160921659
 20
4.7301589862
 30
0.0
 40
0.0320000000000005
100
AcDbArc
 50
261.1501169016
 51
0.0
  0
LINE
  5
192
330
1F
100
AcDbEntity
  8
0
  6
Continuous
 62
     7
370
    30
100
AcDbLine
 10
7.3480921301
 20
4.8601589788
 30
0.0
 11
7.3480921301
 21
4.7301589789
 31
0.0
  0
LINE
  5
193
330
1F
100
AcDbEntity
  8
0
  6
Continuous
 62
     7
370
    30
100
AcDbLine
 10
7.3480921301
 20
4.8601589788
 30
0.0
 11
7.3660921755
 21
4.8601589788
 31
0.0
  0
LINE
  5
194
330
1F
100
AcDbEntity
  8
0
  6
Continuous
 62
     7
370
    30
100
AcDbLine
 10
7.3660921755
 20
4.8601589788
 30
0.0
 11
7.3660921755
 21
4.7301589789
 31
0.0
  0
ARC
  5
195
330
1F
100
AcDbEntity
  8
0
  6
Continuous
 62
     7
370
    30
100
AcDbCircle
 10
7.3160921659
 20
4.7301589862
 30
0.0
 40
0.0500000000000002
100
AcDbArc
 50
261.1501169016
 51
0.0
  0
ARC
  5
196
330
1F
100
AcDbEntity
  8
0
  6
Continuous
 62
     7
370
    30
100
AcDbCircle
 10
7.3660921659
 20
5.0512898006
 30
0.0
 40
0.375
100
AcDbArc
 50
188.0229869069
 51
261.1501169016
  0
ARC
  5
197
330
1F
100
AcDbEntity
  8
0
  6
Continuous
 62
     7
370
    30
100
AcDbCircle
 10
7.0571459741
 20
5.0077438413
 30
0.0
 40
0.0629999999999999
100
AcDbArc
 50
116.7854683781
 51
188.0229869069
  0
ARC
  5
198
330
1F
100
AcDbEntity
  8
0
  6
Continuous
 62
     7
370
    30
100
AcDbCircle
 10
6.9160921659
 20
5.2871589862
 30
0.0
 40
0.2499999999999993
100
AcDbArc
 50
296.7854683781
 51
0.0
  0
LINE
  5
199
330
1F
100
AcDbEntity
  8
0
  6
Continuous
 62
     7
370
    30
100
AcDbLine
 10
7.1660921926
 20
5.2871590127
 30
0.0
 11
7.1660921926
 21
5.404979605
 31
0.0
  0
ARC
  5
19A
330
1F
100
AcDbEntity
  8
0
  6
Continuous
 62
     7
370
    30
100
AcDbCircle
 10
7.2160921659
 20
5.4049795735
 30
0.0
 40
0.05
100
AcDbArc
 50
119.8355602232
 51
180.0
  0
ARC
  5
19B
330
1F
100
AcDbEntity
  8
0
  6
Continuous
 62
     7
370
    30
100
AcDbCircle
 10
7.1660921659
 20
5.4921589862
 30
0.0
 40
0.0505000000000007
100
AcDbArc
 50
299.8355602232
 51
110.0
  0
ARC
  5
19C
330
1F
100
AcDbEntity
  8
0
  6
Continuous
 62
     7
370
    30
100
AcDbCircle
 10
7.4320921659
 20
4.7301589862
 30
0.0
 40
0.0499999999999998
100
AcDbArc
 50
180.0
 51
278.8498830984
  0
ARC
  5
19D
330
1F
100
AcDbEntity
  8
0
  6
Continuous
 62
     7
370
    30
100
AcDbCircle
 10
7.5320921659
 20
5.4049795735
 30
0.0
 40
0.0320000000000004
100
AcDbArc
 50
0.0
 51
60.1644397768
  0
LINE
  5
19E
330
1F
100
AcDbEntity
  8
0
  6
Continuous
 62
     7
370
    30
100
AcDbLine
 10
7.5640922349
 20
5.2871590127
 30
0.0
 11
7.5640922349
 21
5.404979605
 31
0.0
  0
ARC
  5
19F
330
1F
100
AcDbEntity
  8
0
  6
Continuous
 62
     7
370
    30
100
AcDbCircle
 10
7.8320921659
 20
5.2871589862
 30
0.0
 40
0.2679999999999998
100
AcDbArc
 50
180.0
 51
243.2145316219
  0
ARC
  5
1A0
330
1F
100
AcDbEntity
  8
0
  6
Continuous
 62
     7
370
    30
100
AcDbCircle
 10
7.6910383577
 20
5.0077438413
 30
0.0
 40
0.0449999999999999
100
AcDbArc
 50
351.9770130931
 51
63.2145316219
  0
ARC
  5
1A1
330
1F
100
AcDbEntity
  8
0
  6
Continuous
 62
     7
370
    30
100
AcDbCircle
 10
7.3820921659
 20
5.0512898006
 30
0.0
 40
0.3569999999999999
100
AcDbArc
 50
278.8498830984
 51
351.9770130931
  0
LINE
  5
1A2
330
1F
100
AcDbEntity
  8
0
  6
Continuous
 62
     7
370
    30
100
AcDbLine
 10
7.4000921961
 20
4.8601589788
 30
0.0
 11
7.4000921961
 21
4.7301589789
 31
0.0
  0
ARC
  5
1A3
330
1F
100
AcDbEntity
  8
0
  6
Continuous
 62
     7
370
    30
100
AcDbCircle
 10
7.4320921659
 20
4.7301589862
 30
0.0
 40
0.032
100
AcDbArc
 50
180.0
 51
278.8498830984
  0
LINE
  5
1A4
330
1F
100
AcDbEntity
  8
0
  6
Continuous
 62
     7
370
    30
100
AcDbLine
 10
7.4000921961
 20
4.8601589788
 30
0.0
 11
7.3820921507
 21
4.8601589788
 31
0.0
  0
LINE
  5
1A5
330
1F
100
AcDbEntity
  8
0
  6
Continuous
 62
     7
370
    30
100
AcDbLine
 10
7.3820921507
 20
4.8601589788
 30
0.0
 11
7.3820921507
 21
4.7301589789
 31
0.0
  0
ARC
  5
1A6
330
1F
100
AcDbEntity
  8
0
  6
Continuous
 62
     7
370
    30
100
AcDbCircle
 10
7.3820921659
 20
5.0512898006
 30
0.0
 40
0.3750000000000001
100
AcDbArc
 50
278.8498830984
 51
351.9770130931
  0
ARC
  5
1A7
330
1F
100
AcDbEntity
  8
0
  6
Continuous
 62
     7
370
    30
100
AcDbCircle
 10
7.6910383577
 20
5.0077438413
 30
0.0
 40
0.0629999999999999
100
AcDbArc
 50
351.9770130931
 51
63.2145316219
  0
ARC
  5
1A8
330
1F
100
AcDbEntity
  8
0
  6
Continuous
 62
     7
370
    30
100
AcDbCircle
 10
7.8320921659
 20
5.2871589862
 30
0.0
 40
0.25
100
AcDbArc
 50
180.0
 51
243.2145316219
  0
LINE
  5
1A9
330
1F
100
AcDbEntity
  8
0
  6
Continuous
 62
     7
370
    30
100
AcDbLine
 10
7.5820921336
 20
5.2871590127
 30
0.0
 11
7.5820921336
 21
5.404979605
 31
0.0
  0
ARC
  5
1AA
330
1F
100
AcDbEntity
  8
0
  6
Continuous
 62
     7
370
    30
100
AcDbCircle
 10
7.5320921659
 20
5.4049795735
 30
0.0
 40
0.0499999999999998
100
AcDbArc
 50
0.0
 51
60.1644397768
  0
ARC
  5
1AB
330
1F
100
AcDbEntity
  8
0
  6
Continuous
 62
     7
370
    30
100
AcDbCircle
 10
7.5820921659
 20
5.4921589862
 30
0.0
 40
0.0505000000000007
100
AcDbArc
 50
70.0
 51
240.1644397768
  0
LINE
  5
1AC
330
1F
100
AcDbEntity
  8
0
  6
Continuous
 62
     7
370
    30
100
AcDbLine
 10
7.5993641341
 20
5.5396134297
 30
0.0
 11
7.6055205429
 21
5.5565279343
 31
0.0
  0
ARC
  5
1AD
330
1F
100
AcDbEntity
  8
0
  6
Continuous
 62
     7
370
    30
100
AcDbCircle
 10
7.5820921659
 20
5.4921589862
 30
0.0
 40
0.0684999999999995
100
AcDbArc
 50
70.0
 51
240.1644397768
  0
LINE
  5
1AE
330
1F
100
AcDbEntity
  8
0
  6
Continuous
 62
     7
370
    30
100
AcDbLine
 10
4.0993641397
 20
5.5396134297
 30
0.0
 11
4.1055205486
 21
5.5565279343
 31
0.0
  0
ARC
  5
1AF
330
1F
100
AcDbEntity
  8
0
  6
Continuous
 62
     7
370
    30
100
AcDbCircle
 10
4.0320921659
 20
5.4049795735
 30
0.0
 40
0.0499999999999998
100
AcDbArc
 50
360.0
 51
60.1644397768
  0
ARC
  5
1B0
330
1F
100
AcDbEntity
  8
0
  6
Continuous
 62
     7
370
    30
100
AcDbCircle
 10
4.0820921659
 20
5.4921589862
 30
0.0
 40
0.0685000000000007
100
AcDbArc
 50
70.0
 51
240.1644397768
  0
ARC
  5
1B1
330
1F
100
AcDbEntity
  8
0
  6
Continuous
 62
     7
370
    30
100
AcDbCircle
 10
4.0320921659
 20
5.4049795735
 30
0.0
 40
0.032
100
AcDbArc
 50
360.0
 51
60.1644397768
  0
LINE
  5
1B2
330
1F
100
AcDbEntity
  8
0
  6
Continuous
 62
     7
370
    30
100
AcDbLine
 10
4.0640920938
 20
5.2871590127
 30
0.0
 11
4.0640920938
 21
5.404979605
 31
0.0
  0
ARC
  5
1B3
330
1F
100
AcDbEntity
  8
0
  6
Continuous
 62
     7
370
    30
100
AcDbCircle
 10
4.3320921659
 20
5.2871589862
 30
0.0
 40
0.2680000000000007
100
AcDbArc
 50
180.0
 51
243.2145316219
  0
ARC
  5
1B4
330
1F
100
AcDbEntity
  8
0
  6
Continuous
 62
     7
370
    30
100
AcDbCircle
 10
4.1910383577
 20
5.0077438413
 30
0.0
 40
0.0449999999999995
100
AcDbArc
 50
351.9770130931
 51
63.2145316219
  0
ARC
  5
1B5
330
1F
100
AcDbEntity
  8
0
  6
Continuous
 62
     7
370
    30
100
AcDbCircle
 10
3.8820921659
 20
5.0512898006
 30
0.0
 40
0.3569999999999994
100
AcDbArc
 50
278.8498830984
 51
351.9770130931
  0
ARC
  5
1B6
330
1F
100
AcDbEntity
  8
0
  6
Continuous
 62
     7
370
    30
100
AcDbCircle
 10
3.9320921659
 20
4.7301589862
 30
0.0
 40
0.032
100
AcDbArc
 50
180.0
 51
278.8498830984
  0
LINE
  5
1B7
330
1F
100
AcDbEntity
  8
0
  6
Continuous
 62
     7
370
    30
100
AcDbLine
 10
3.9000922017
 20
4.8601589788
 30
0.0
 11
3.9000922017
 21
4.7301589789
 31
0.0
  0
LINE
  5
1B8
330
1F
100
AcDbEntity
  8
0
  6
Continuous
 62
     7
370
    30
100
AcDbLine
 10
3.9000922017
 20
4.8601589788
 30
0.0
 11
3.8820921563
 21
4.8601589788
 31
0.0
  0
LINE
  5
1B9
330
1F
100
AcDbEntity
  8
0
  6
Continuous
 62
     7
370
    30
100
AcDbLine
 10
3.8820921563
 20
4.8601589788
 30
0.0
 11
3.8820921563
 21
4.7301589789
 31
0.0
  0
ARC
  5
1BA
330
1F
100
AcDbEntity
  8
0
  6
Continuous
 62
     7
370
    30
100
AcDbCircle
 10
3.9320921659
 20
4.7301589862
 30
0.0
 40
0.0500000000000003
100
AcDbArc
 50
180.0
 51
278.8498830984
  0
ARC
  5
1BB
330
1F
100
AcDbEntity
  8
0
  6
Continuous
 62
     7
370
    30
100
AcDbCircle
 10
3.8820921659
 20
5.0512898006
 30
0.0
 40
0.3749999999999996
100
AcDbArc
 50
278.8498830984
 51
351.9770130931
  0
ARC
  5
1BC
330
1F
100
AcDbEntity
  8
0
  6
Continuous
 62
     7
370
    30
100
AcDbCircle
 10
4.1910383577
 20
5.0077438413
 30
0.0
 40
0.0630000000000003
100
AcDbArc
 50
351.9770130931
 51
63.2145316219
  0
ARC
  5
1BD
330
1F
100
AcDbEntity
  8
0
  6
Continuous
 62
     7
370
    30
100
AcDbCircle
 10
4.3320921659
 20
5.2871589862
 30
0.0
 40
0.2500000000000009
100
AcDbArc
 50
180.0
 51
243.2145316219
  0
LINE
  5
1BE
330
1F
100
AcDbEntity
  8
0
  6
Continuous
 62
     7
370
    30
100
AcDbLine
 10
4.0820921392
 20
5.2871590127
 30
0.0
 11
4.0820921392
 21
5.404979605
 31
0.0
  0
ARC
  5
1BF
330
1F
100
AcDbEntity
  8
0
  6
Continuous
 62
     7
370
    30
100
AcDbCircle
 10
4.0820921659
 20
5.4921589862
 30
0.0
 40
0.0505000000000002
100
AcDbArc
 50
70.0
 51
240.1644397768
  0
ARC
  5
1C0
330
1F
100
AcDbEntity
  8
0
  6
Continuous
 62
     7
370
    30
100
AcDbCircle
 10
3.4160921659
 20
5.2871589862
 30
0.0
 40
0.2680000000000002
100
AcDbArc
 50
296.7854683781
 51
0.0
  0
ARC
  5
1C1
330
1F
100
AcDbEntity
  8
0
  6
Continuous
 62
     7
370
    30
100
AcDbCircle
 10
3.8660921659
 20
5.0512898006
 30
0.0
 40
0.3569999999999998
100
AcDbArc
 50
188.0229869069
 51
261.1501169016
  0
ARC
  5
1C2
330
1F
100
AcDbEntity
  8
0
  6
Continuous
 62
     7
370
    30
100
AcDbCircle
 10
3.7160921659
 20
5.4049795735
 30
0.0
 40
0.0500000000000003
100
AcDbArc
 50
119.8355602232
 51
180.0
  0
ARC
  5
1C3
330
1F
100
AcDbEntity
  8
0
  6
Continuous
 62
     7
370
    30
100
AcDbCircle
 10
3.7160921659
 20
5.4049795735
 30
0.0
 40
0.0319999999999996
100
AcDbArc
 50
119.8355602232
 51
180.0
  0
LINE
  5
1C4
330
1F
100
AcDbEntity
  8
0
  6
Continuous
 62
     7
370
    30
100
AcDbLine
 10
3.6840920969
 20
5.2871590127
 30
0.0
 11
3.6840920969
 21
5.404979605
 31
0.0
  0
ARC
  5
1C5
330
1F
100
AcDbEntity
  8
0
  6
Continuous
 62
     7
370
    30
100
AcDbCircle
 10
3.5571459741
 20
5.0077438413
 30
0.0
 40
0.0450000000000011
100
AcDbArc
 50
116.7854683781
 51
188.0229869069
  0
ARC
  5
1C6
330
1F
100
AcDbEntity
  8
0
  6
Continuous
 62
     7
370
    30
100
AcDbCircle
 10
3.8160921659
 20
4.7301589862
 30
0.0
 40
0.0320000000000005
100
AcDbArc
 50
261.1501169016
 51
0.0
  0
LINE
  5
1C7
330
1F
100
AcDbEntity
  8
0
  6
Continuous
 62
     7
370
    30
100
AcDbLine
 10
3.8480921357
 20
4.8601589788
 30
0.0
 11
3.8480921357
 21
4.7301589789
 31
0.0
  0
LINE
  5
1C8
330
1F
100
AcDbEntity
  8
0
  6
Continuous
 62
     7
370
    30
100
AcDbLine
 10
3.8480921357
 20
4.8601589788
 30
0.0
 11
3.8660921811
 21
4.8601589788
 31
0.0
  0
LINE
  5
1C9
330
1F
100
AcDbEntity
  8
0
  6
Continuous
 62
     7
370
    30
100
AcDbLine
 10
3.8660921811
 20
4.8601589788
 30
0.0
 11
3.8660921811
 21
4.7301589789
 31
0.0
  0
ARC
  5
1CA
330
1F
100
AcDbEntity
  8
0
  6
Continuous
 62
     7
370
    30
100
AcDbCircle
 10
3.8160921659
 20
4.7301589862
 30
0.0
 40
0.0500000000000003
100
AcDbArc
 50
261.1501169016
 51
0.0
  0
ARC
  5
1CB
330
1F
100
AcDbEntity
  8
0
  6
Continuous
 62
     7
370
    30
100
AcDbCircle
 10
3.8660921659
 20
5.0512898006
 30
0.0
 40
0.3749999999999996
100
AcDbArc
 50
188.0229869069
 51
261.1501169016
  0
ARC
  5
1CC
330
1F
100
AcDbEntity
  8
0
  6
Continuous
 62
     7
370
    30
100
AcDbCircle
 10
3.5571459741
 20
5.0077438413
 30
0.0
 40
0.0630000000000011
100
AcDbArc
 50
116.7854683781
 51
188.0229869069
  0
ARC
  5
1CD
330
1F
100
AcDbEntity
  8
0
  6
Continuous
 62
     7
370
    30
100
AcDbCircle
 10
3.4160921659
 20
5.2871589862
 30
0.0
 40
0.2500000000000002
100
AcDbArc
 50
296.7854683781
 51
0.0
  0
LINE
  5
1CE
330
1F
100
AcDbEntity
  8
0
  6
Continuous
 62
     7
370
    30
100
AcDbLine
 10
3.6660921982
 20
5.2871590127
 30
0.0
 11
3.6660921982
 21
5.404979605
 31
0.0
  0
ARC
  5
1CF
330
1F
100
AcDbEntity
  8
0
  6
Continuous
 62
     7
370
    30
100
AcDbCircle
 10
3.6660921659
 20
5.4921589862
 30
0.0
 40
0.0505000000000004
100
AcDbArc
 50
299.8355602232
 51
110.0
  0
LINE
  5
1D0
330
1F
100
AcDbEntity
  8
0
  6
Continuous
 62
     7
370
    30
100
AcDbLine
 10
3.6488201977
 20
5.5396134297
 30
0.0
 11
3.6426637889
 21
5.5565279343
 31
0.0
  0
ARC
  5
1D1
330
1F
100
AcDbEntity
  8
0
  6
Continuous
 62
     7
370
    30
100
AcDbCircle
 10
3.6660921659
 20
5.4921589862
 30
0.0
 40
0.0685000000000004
100
AcDbArc
 50
299.8355602232
 51
110.0
  0
LINE
  5
1D2
330
1F
100
AcDbEntity
  8
0
  6
Continuous
 62
     7
370
    30
100
AcDbLine
 10
5.3988201399
 20
5.5396134297
 30
0.0
 11
5.392663786
 21
5.5565279343
 31
0.0
  0
ARC
  5
1D3
330
1F
100
AcDbEntity
  8
0
  6
Continuous
 62
     7
370
    30
100
AcDbCircle
 10
5.1660921659
 20
5.2871589862
 30
0.0
 40
0.2680000000000007
100
AcDbArc
 50
296.7854683781
 51
0.0
  0
ARC
  5
1D4
330
1F
100
AcDbEntity
  8
0
  6
Continuous
 62
     7
370
    30
100
AcDbCircle
 10
5.3071459741
 20
5.0077438413
 30
0.0
 40
0.0449999999999995
100
AcDbArc
 50
116.7854683781
 51
188.0229869069
  0
LINE
  5
1D5
330
1F
100
AcDbEntity
  8
0
  6
Continuous
 62
     7
370
    30
100
AcDbLine
 10
5.598092165
 20
4.8601589788
 30
0.0
 11
5.6160921657
 21
4.8601589788
 31
0.0
  0
ARC
  5
1D6
330
1F
100
AcDbEntity
  8
0
  6
Continuous
 62
     7
370
    30
100
AcDbCircle
 10
5.6160921659
 20
5.0512898006
 30
0.0
 40
0.3750000000000005
100
AcDbArc
 50
188.0229869069
 51
261.1501169016
  0
ARC
  5
1D7
330
1F
100
AcDbEntity
  8
0
  6
Continuous
 62
     7
370
    30
100
AcDbCircle
 10
5.3071459741
 20
5.0077438413
 30
0.0
 40
0.0629999999999997
100
AcDbArc
 50
116.7854683781
 51
188.0229869069
  0
LINE
  5
1D8
330
1F
100
AcDbEntity
  8
0
  6
Continuous
 62
     7
370
    30
100
AcDbLine
 10
5.4160921587
 20
5.2871590127
 30
0.0
 11
5.4160921587
 21
5.404979605
 31
0.0
  0
ARC
  5
1D9
330
1F
100
AcDbEntity
  8
0
  6
Continuous
 62
     7
370
    30
100
AcDbCircle
 10
5.4660921659
 20
5.4049795735
 30
0.0
 40
0.0500000000000005
100
AcDbArc
 50
119.8355602232
 51
180.0
  0
ARC
  5
1DA
330
1F
100
AcDbEntity
  8
0
  6
Continuous
 62
     7
370
    30
100
AcDbCircle
 10
5.4160921659
 20
5.4921589862
 30
0.0
 40
0.0505000000000004
100
AcDbArc
 50
299.8355602232
 51
110.0
  0
ARC
  5
1DB
330
1F
100
AcDbEntity
  8
0
  6
Continuous
 62
     7
370
    30
100
AcDbCircle
 10
5.4160921659
 20
5.4921589862
 30
0.0
 40
0.0685000000000007
100
AcDbArc
 50
299.8355602232
 51
110.0
  0
ARC
  5
1DC
330
1F
100
AcDbEntity
  8
0
  6
Continuous
 62
     7
370
    30
100
AcDbCircle
 10
5.5660921659
 20
4.7301589862
 30
0.0
 40
0.0500000000000002
100
AcDbArc
 50
261.1501169016
 51
0.0
  0
ARC
  5
1DD
330
1F
100
AcDbEntity
  8
0
  6
Continuous
 62
     7
370
    30
100
AcDbCircle
 10
5.4660921659
 20
5.4049795735
 30
0.0
 40
0.032
100
AcDbArc
 50
119.8355602232
 51
180.0
  0
LINE
  5
1DE
330
1F
100
AcDbEntity
  8
0
  6
Continuous
 62
     7
370
    30
100
AcDbLine
 10
5.4340921675
 20
5.2871590127
 30
0.0
 11
5.4340921675
 21
5.404979605
 31
0.0
  0
ARC
  5
1DF
330
1F
100
AcDbEntity
  8
0
  6
Continuous
 62
     7
370
    30
100
AcDbCircle
 10
5.6160921659
 20
5.0512898006
 30
0.0
 40
0.3569999999999998
100
AcDbArc
 50
188.0229869069
 51
261.1501169016
  0
ARC
  5
1E0
330
1F
100
AcDbEntity
  8
0
  6
Continuous
 62
     7
370
    30
100
AcDbCircle
 10
5.5660921659
 20
4.7301589862
 30
0.0
 40
0.032
100
AcDbArc
 50
261.1501169016
 51
0.0
  0
LINE
  5
1E1
330
1F
100
AcDbEntity
  8
0
  6
Continuous
 62
     7
370
    30
100
AcDbLine
 10
5.598092165
 20
4.8601589788
 30
0.0
 11
5.598092165
 21
4.7301589789
 31
0.0
  0
LINE
  5
1E2
330
1F
100
AcDbEntity
  8
0
  6
Continuous
 62
     7
370
    30
100
AcDbLine
 10
5.6160921657
 20
4.8601589788
 30
0.0
 11
5.6160921657
 21
4.7301589789
 31
0.0
  0
ARC
  5
1E3
330
1F
100
AcDbEntity
  8
0
  6
Continuous
 62
     7
370
    30
100
AcDbCircle
 10
5.1660921659
 20
5.2871589862
 30
0.0
 40
0.2500000000000009
100
AcDbArc
 50
296.7854683781
 51
0.0
  0
LINE
  5
1E4
330
1F
100
AcDbEntity
  8
0
  6
Continuous
 62
     7
370
    30
100
AcDbLine
 10
3.6240921901
 20
5.5681589799
 30
0.0
 11
3.6240921901
 21
5.5665700116
 31
0.0
  0
ARC
  5
1E5
330
1F
100
AcDbEntity
  8
0
  6
Continuous
 62
     7
370
    30
100
AcDbCircle
 10
3.6860921659
 20
5.5681589862
 30
0.0
 40
0.0620000000000029
100
AcDbArc
 50
90.0
 51
180.0
  0
LINE
  5
1E6
330
1F
100
AcDbEntity
  8
0
  6
Continuous
 62
     7
370
    30
100
AcDbLine
 10
3.8004914323
 20
5.5791020935
 30
0.0
 11
3.8004914323
 21
5.5849589392
 31
0.0
  0
LINE
  5
1E7
330
1F
100
AcDbEntity
  8
0
  6
Continuous
 62
     7
370
    30
100
AcDbLine
 10
3.7801311075
 20
5.5614905636
 30
0.0
 11
3.7801311075
 21
5.5673470426
 31
0.0
  0
LINE
  5
1E8
330
1F
100
AcDbEntity
  8
0
  6
Continuous
 62
     7
370
    30
100
AcDbLine
 10
3.7801311075
 20
5.4910437107
 30
0.0
 11
3.7801311075
 21
5.4969001898
 31
0.0
  0
LINE
  5
1E9
330
1F
100
AcDbEntity
  8
0
  6
Continuous
 62
     7
370
    30
100
AcDbLine
 10
3.7801311075
 20
5.4558202843
 30
0.0
 11
3.7801311075
 21
5.4616767633
 31
0.0
  0
LINE
  5
1EA
330
1F
100
AcDbEntity
  8
0
  6
Continuous
 62
     7
370
    30
100
AcDbLine
 10
3.8004914323
 20
5.4382083878
 30
0.0
 11
3.8004914323
 21
5.4440652334
 31
0.0
  0
LINE
  5
1EB
330
1F
100
AcDbEntity
  8
0
  6
Continuous
 62
     7
370
    30
100
AcDbLine
 10
3.7801311075
 20
5.4205968579
 30
0.0
 11
3.7801311075
 21
5.4264533369
 31
0.0
  0
LINE
  5
1EC
330
1F
100
AcDbEntity
  8
0
  6
Continuous
 62
     7
370
    30
100
AcDbLine
 10
3.7801311075
 20
5.3853734315
 30
0.0
 11
3.7801311075
 21
5.3912299105
 31
0.0
  0
LINE
  5
1ED
330
1F
100
AcDbEntity
  8
0
  6
Continuous
 62
     7
370
    30
100
AcDbLine
 10
3.9680222836
 20
5.4012068685
 30
0.0
 11
3.9476612255
 21
5.3894513777
 31
0.0
  0
LINE
  5
1EE
330
1F
100
AcDbEntity
  8
0
  6
Continuous
 62
     7
370
    30
100
AcDbLine
 10
3.9476619588
 20
5.4188184718
 30
0.0
 11
3.9680222836
 21
5.4070634209
 31
0.0
  0
LINE
  5
1EF
330
1F
100
AcDbEntity
  8
0
  6
Continuous
 62
     7
370
    30
100
AcDbLine
 10
3.9680222836
 20
5.436430295
 30
0.0
 11
3.9476619588
 21
5.4246752441
 31
0.0
  0
LINE
  5
1F0
330
1F
100
AcDbEntity
  8
0
  6
Continuous
 62
     7
370
    30
100
AcDbLine
 10
3.9680222836
 20
5.4716537214
 30
0.0
 11
3.9476619588
 21
5.4598986705
 31
0.0
  0
LINE
  5
1F1
330
1F
100
AcDbEntity
  8
0
  6
Continuous
 62
     7
370
    30
100
AcDbLine
 10
3.9680222836
 20
5.5068771478
 30
0.0
 11
3.9476619588
 21
5.495122097
 31
0.0
  0
LINE
  5
1F2
330
1F
100
AcDbEntity
  8
0
  6
Continuous
 62
     7
370
    30
100
AcDbLine
 10
3.9680222836
 20
5.5421005743
 30
0.0
 11
3.9476619588
 21
5.5303455234
 31
0.0
  0
LINE
  5
1F3
330
1F
100
AcDbEntity
  8
0
  6
Continuous
 62
     7
370
    30
100
AcDbLine
 10
3.9476612255
 20
5.3835862454
 30
0.0
 11
3.9590362674
 21
5.3770188813
 31
0.0
  0
ARC
  5
1F4
330
1F
100
AcDbEntity
  8
0
  6
Continuous
 62
     7
370
    30
100
AcDbCircle
 10
4.1140921659
 20
5.5665700069
 30
0.0
 40
0.00999999999999
100
AcDbArc
 50
246.7301760415
 51
360.0
  0
ARC
  5
1F5
330
1F
100
AcDbEntity
  8
0
  6
Continuous
 62
     7
370
    30
100
AcDbCircle
 10
4.0820921659
 20
5.4921589862
 30
0.0
 40
0.0710000000000112
100
AcDbArc
 50
66.7301760415
 51
232.4184423813
  0
ARC
  5
1F6
330
1F
100
AcDbEntity
  8
0
  6
Continuous
 62
     7
370
    30
100
AcDbCircle
 10
4.0265921659
 20
5.4200427605
 30
0.0
 40
0.0199999999999987
100
AcDbArc
 50
0.0
 51
52.4184423812
  0
LINE
  5
1F7
330
1F
100
AcDbEntity
  8
0
  6
Continuous
 62
     7
370
    30
100
AcDbLine
 10
4.046592176
 20
5.255158989
 30
0.0
 11
4.046592176
 21
5.4200427576
 31
0.0
  0
LINE
  5
1F8
330
1F
100
AcDbEntity
  8
0
  6
Continuous
 62
     7
370
    30
100
AcDbLine
 10
3.7015921614
 20
5.4200427576
 30
0.0
 11
3.7015921614
 21
5.255158989
 31
0.0
  0
ARC
  5
1F9
330
1F
100
AcDbEntity
  8
0
  6
Continuous
 62
     7
370
    30
100
AcDbCircle
 10
3.7215921659
 20
5.4200427605
 30
0.0
 40
0.0200000000000004
100
AcDbArc
 50
127.5815576188
 51
180.0
  0
ARC
  5
1FA
330
1F
100
AcDbEntity
  8
0
  6
Continuous
 62
     7
370
    30
100
AcDbCircle
 10
3.6660921659
 20
5.4921589862
 30
0.0
 40
0.0710000000000088
100
AcDbArc
 50
307.5815576188
 51
113.2698239585
  0
ARC
  5
1FB
330
1F
100
AcDbEntity
  8
0
  6
Continuous
 62
     7
370
    30
100
AcDbCircle
 10
3.6340921659
 20
5.5665700069
 30
0.0
 40
0.0099999999999927
100
AcDbArc
 50
180.0
 51
293.2698239585
  0
LINE
  5
1FC
330
1F
100
AcDbEntity
  8
0
  6
Continuous
 62
     7
370
    30
100
AcDbLine
 10
3.8004914323
 20
5.6143255199
 30
0.0
 11
3.8004914323
 21
5.6201823656
 31
0.0
  0
LINE
  5
1FD
330
1F
100
AcDbEntity
  8
0
  6
Continuous
 62
     7
370
    30
100
AcDbLine
 10
3.7801311075
 20
5.59671399
 30
0.0
 11
3.7801311075
 21
5.602570469
 31
0.0
  0
LINE
  5
1FE
330
1F
100
AcDbEntity
  8
0
  6
Continuous
 62
     7
370
    30
100
AcDbLine
 10
3.8004914323
 20
5.5438786671
 30
0.0
 11
3.8004914323
 21
5.5497355127
 31
0.0
  0
LINE
  5
1FF
330
1F
100
AcDbEntity
  8
0
  6
Continuous
 62
     7
370
    30
100
AcDbLine
 10
3.7801311075
 20
5.5262671372
 30
0.0
 11
3.7801311075
 21
5.5321236162
 31
0.0
  0
LINE
  5
200
330
1F
100
AcDbEntity
  8
0
  6
Continuous
 62
     7
370
    30
100
AcDbLine
 10
3.8004914323
 20
5.5086552406
 30
0.0
 11
3.8004914323
 21
5.5145120863
 31
0.0
  0
LINE
  5
201
330
1F
100
AcDbEntity
  8
0
  6
Continuous
 62
     7
370
    30
100
AcDbLine
 10
3.8004914323
 20
5.4734318142
 30
0.0
 11
3.8004914323
 21
5.4792886599
 31
0.0
  0
LINE
  5
202
330
1F
100
AcDbEntity
  8
0
  6
Continuous
 62
     7
370
    30
100
AcDbLine
 10
3.8004914323
 20
5.4029850347
 30
0.0
 11
3.8004914323
 21
5.408841807
 31
0.0
  0
LINE
  5
203
330
1F
100
AcDbEntity
  8
0
  6
Continuous
 62
     7
370
    30
100
AcDbLine
 10
3.9476619588
 20
5.4540418982
 30
0.0
 11
3.9680222836
 21
5.442286774
 31
0.0
  0
LINE
  5
204
330
1F
100
AcDbEntity
  8
0
  6
Continuous
 62
     7
370
    30
100
AcDbLine
 10
3.9476619588
 20
5.4892653246
 30
0.0
 11
3.9680222836
 21
5.4775102004
 31
0.0
  0
LINE
  5
205
330
1F
100
AcDbEntity
  8
0
  6
Continuous
 62
     7
370
    30
100
AcDbLine
 10
3.9476619588
 20
5.495122097
 30
0.0
 11
3.9476619588
 21
5.4892653246
 31
0.0
  0
LINE
  5
206
330
1F
100
AcDbEntity
  8
0
  6
Continuous
 62
     7
370
    30
100
AcDbLine
 10
3.9476619588
 20
5.5244887511
 30
0.0
 11
3.9680222836
 21
5.5127336268
 31
0.0
  0
LINE
  5
207
330
1F
100
AcDbEntity
  8
0
  6
Continuous
 62
     7
370
    30
100
AcDbLine
 10
3.9476619588
 20
5.5597121041
 30
0.0
 11
3.9680222836
 21
5.5479570533
 31
0.0
  0
LINE
  5
208
330
1F
100
AcDbEntity
  8
0
  6
Continuous
 62
     7
370
    30
100
AcDbLine
 10
3.9680222836
 20
5.5773240007
 30
0.0
 11
3.9476619588
 21
5.5655689498
 31
0.0
  0
LINE
  5
209
330
1F
100
AcDbEntity
  8
0
  6
Continuous
 62
     7
370
    30
100
AcDbLine
 10
3.9476619588
 20
5.5949355306
 30
0.0
 11
3.9680222836
 21
5.5831804797
 31
0.0
  0
LINE
  5
20A
330
1F
100
AcDbEntity
  8
0
  6
Continuous
 62
     7
370
    30
100
AcDbLine
 10
3.9680222836
 20
5.6125474271
 30
0.0
 11
3.9476619588
 21
5.6007923763
 31
0.0
  0
LINE
  5
20B
330
1F
100
AcDbEntity
  8
0
  6
Continuous
 62
     7
370
    30
100
AcDbLine
 10
3.9476619588
 20
5.630158957
 30
0.0
 11
3.9680222836
 21
5.6184039061
 31
0.0
  0
ARC
  5
20C
330
1F
100
AcDbEntity
  8
0
  6
Continuous
 62
     7
370
    30
100
AcDbCircle
 10
4.0620921659
 20
5.5681589862
 30
0.0
 40
0.0620000000000065
100
AcDbArc
 50
0.0
 51
90.0
  0
LINE
  5
20D
330
1F
100
AcDbEntity
  8
0
  6
Continuous
 62
     7
370
    30
100
AcDbLine
 10
3.8004914323
 20
5.6201823656
 30
0.0
 11
3.7832113652
 21
5.630158957
 31
0.0
  0
LINE
  5
20E
330
1F
100
AcDbEntity
  8
0
  6
Continuous
 62
     7
370
    30
100
AcDbLine
 10
4.1240921474
 20
5.5665700116
 30
0.0
 11
4.1240921474
 21
5.5681589799
 31
0.0
  0
LINE
  5
20F
330
1F
100
AcDbEntity
  8
0
  6
Continuous
 62
     7
370
    30
100
AcDbLine
 10
3.9680222836
 20
5.442286774
 30
0.0
 11
3.9680222836
 21
5.436430295
 31
0.0
  0
LINE
  5
210
330
1F
100
AcDbEntity
  8
0
  6
Continuous
 62
     7
370
    30
100
AcDbLine
 10
3.9680222836
 20
5.4775102004
 30
0.0
 11
3.9680222836
 21
5.4716537214
 31
0.0
  0
LINE
  5
211
330
1F
100
AcDbEntity
  8
0
  6
Continuous
 62
     7
370
    30
100
AcDbLine
 10
3.9680222836
 20
5.5127336268
 30
0.0
 11
3.9680222836
 21
5.5068771478
 31
0.0
  0
LINE
  5
212
330
1F
100
AcDbEntity
  8
0
  6
Continuous
 62
     7
370
    30
100
AcDbLine
 10
3.9476619588
 20
5.5303455234
 30
0.0
 11
3.9476619588
 21
5.5244887511
 31
0.0
  0
LINE
  5
213
330
1F
100
AcDbEntity
  8
0
  6
Continuous
 62
     7
370
    30
100
AcDbLine
 10
3.9680222836
 20
5.5479570533
 30
0.0
 11
3.9680222836
 21
5.5421005743
 31
0.0
  0
LINE
  5
214
330
1F
100
AcDbEntity
  8
0
  6
Continuous
 62
     7
370
    30
100
AcDbLine
 10
3.9476619588
 20
5.5655689498
 30
0.0
 11
3.9476619588
 21
5.5597121041
 31
0.0
  0
LINE
  5
215
330
1F
100
AcDbEntity
  8
0
  6
Continuous
 62
     7
370
    30
100
AcDbLine
 10
3.9680222836
 20
5.5831804797
 30
0.0
 11
3.9680222836
 21
5.5773240007
 31
0.0
  0
LINE
  5
216
330
1F
100
AcDbEntity
  8
0
  6
Continuous
 62
     7
370
    30
100
AcDbLine
 10
3.9476619588
 20
5.6007923763
 30
0.0
 11
3.9476619588
 21
5.5949355306
 31
0.0
  0
LINE
  5
217
330
1F
100
AcDbEntity
  8
0
  6
Continuous
 62
     7
370
    30
100
AcDbLine
 10
3.9680222836
 20
5.6184039061
 30
0.0
 11
3.9680222836
 21
5.6125474271
 31
0.0
  0
LINE
  5
218
330
1F
100
AcDbEntity
  8
0
  6
Continuous
 62
     7
370
    30
100
AcDbLine
 10
4.046592176
 20
5.255158989
 30
0.0
 11
3.7015921614
 21
5.255158989
 31
0.0
  0
LINE
  5
219
330
1F
100
AcDbEntity
  8
0
  6
Continuous
 62
     7
370
    30
100
AcDbLine
 10
3.7832113652
 20
5.630158957
 30
0.0
 11
3.6860921672
 21
5.630158957
 31
0.0
  0
ARC
  5
21A
330
1F
100
AcDbEntity
  8
0
  6
Continuous
 62
     7
370
    30
100
AcDbCircle
 10
3.7920921659
 20
5.3461589862
 30
0.0
 40
0.0310000000000006
100
AcDbArc
 50
104.7376174516
 51
270.0
  0
ARC
  5
21B
330
1F
100
AcDbEntity
  8
0
  6
Continuous
 62
     7
370
    30
100
AcDbCircle
 10
3.9560921659
 20
5.3461589862
 30
0.0
 40
0.0310000000000005
100
AcDbArc
 50
270.0
 51
84.5504773049
  0
LINE
  5
21C
330
1F
100
AcDbEntity
  8
0
  6
Continuous
 62
     7
370
    30
100
AcDbLine
 10
4.0620921703
 20
5.630158957
 30
0.0
 11
3.9476619588
 21
5.630158957
 31
0.0
  0
LINE
  5
21D
330
1F
100
AcDbEntity
  8
0
  6
Continuous
 62
     7
370
    30
100
AcDbLine
 10
3.7801311075
 20
5.602570469
 30
0.0
 11
3.8004914323
 21
5.6143255199
 31
0.0
  0
LINE
  5
21E
330
1F
100
AcDbEntity
  8
0
  6
Continuous
 62
     7
370
    30
100
AcDbLine
 10
3.8004914323
 20
5.5849589392
 30
0.0
 11
3.7801311075
 21
5.59671399
 31
0.0
  0
LINE
  5
21F
330
1F
100
AcDbEntity
  8
0
  6
Continuous
 62
     7
370
    30
100
AcDbLine
 10
3.7801311075
 20
5.5673470426
 30
0.0
 11
3.8004914323
 21
5.5791020935
 31
0.0
  0
LINE
  5
220
330
1F
100
AcDbEntity
  8
0
  6
Continuous
 62
     7
370
    30
100
AcDbLine
 10
3.8004914323
 20
5.5497355127
 30
0.0
 11
3.7801311075
 21
5.5614905636
 31
0.0
  0
LINE
  5
221
330
1F
100
AcDbEntity
  8
0
  6
Continuous
 62
     7
370
    30
100
AcDbLine
 10
3.7801311075
 20
5.5321236162
 30
0.0
 11
3.8004914323
 21
5.5438786671
 31
0.0
  0
LINE
  5
222
330
1F
100
AcDbEntity
  8
0
  6
Continuous
 62
     7
370
    30
100
AcDbLine
 10
3.8004914323
 20
5.5145120863
 30
0.0
 11
3.7801311075
 21
5.5262671372
 31
0.0
  0
LINE
  5
223
330
1F
100
AcDbEntity
  8
0
  6
Continuous
 62
     7
370
    30
100
AcDbLine
 10
3.7801311075
 20
5.4969001898
 30
0.0
 11
3.8004914323
 21
5.5086552406
 31
0.0
  0
LINE
  5
224
330
1F
100
AcDbEntity
  8
0
  6
Continuous
 62
     7
370
    30
100
AcDbLine
 10
3.8004914323
 20
5.4792886599
 30
0.0
 11
3.7801311075
 21
5.4910437107
 31
0.0
  0
LINE
  5
225
330
1F
100
AcDbEntity
  8
0
  6
Continuous
 62
     7
370
    30
100
AcDbLine
 10
3.7801311075
 20
5.4616767633
 30
0.0
 11
3.8004914323
 21
5.4734318142
 31
0.0
  0
LINE
  5
226
330
1F
100
AcDbEntity
  8
0
  6
Continuous
 62
     7
370
    30
100
AcDbLine
 10
3.8004914323
 20
5.4440652334
 30
0.0
 11
3.7801311075
 21
5.4558202843
 31
0.0
  0
LINE
  5
227
330
1F
100
AcDbEntity
  8
0
  6
Continuous
 62
     7
370
    30
100
AcDbLine
 10
3.7801311075
 20
5.4264533369
 30
0.0
 11
3.8004914323
 21
5.4382083878
 31
0.0
  0
LINE
  5
228
330
1F
100
AcDbEntity
  8
0
  6
Continuous
 62
     7
370
    30
100
AcDbLine
 10
3.8004914323
 20
5.408841807
 30
0.0
 11
3.7801311075
 21
5.4205968579
 31
0.0
  0
LINE
  5
229
330
1F
100
AcDbEntity
  8
0
  6
Continuous
 62
     7
370
    30
100
AcDbLine
 10
3.7801311075
 20
5.3912299105
 30
0.0
 11
3.8004914323
 21
5.4029850347
 31
0.0
  0
LINE
  5
22A
330
1F
100
AcDbEntity
  8
0
  6
Continuous
 62
     7
370
    30
100
AcDbLine
 10
3.784732281
 20
5.3827168888
 30
0.0
 11
3.7801311075
 21
5.3853734315
 31
0.0
  0
ARC
  5
22B
330
1F
100
AcDbEntity
  8
0
  6
Continuous
 62
     7
370
    30
100
AcDbCircle
 10
3.775059231
 20
5.3801810084
 30
0.0
 40
0.0100000000000086
100
AcDbArc
 50
336.1596651702
 51
14.6901250941
  0
LINE
  5
22C
330
1F
100
AcDbEntity
  8
0
  6
Continuous
 62
     7
370
    30
100
AcDbLine
 10
3.9560921148
 20
5.3151589692
 30
0.0
 11
3.7920922227
 21
5.3151589692
 31
0.0
  0
LINE
  5
22D
330
1F
100
AcDbEntity
  8
0
  6
Continuous
 62
     7
370
    30
100
AcDbLine
 10
3.9476612255
 20
5.3894513777
 30
0.0
 11
3.9476612255
 21
5.3835862454
 31
0.0
  0
LINE
  5
22E
330
1F
100
AcDbEntity
  8
0
  6
Continuous
 62
     7
370
    30
100
AcDbLine
 10
3.9680222836
 20
5.4070634209
 30
0.0
 11
3.9680222836
 21
5.4012068685
 31
0.0
  0
LINE
  5
22F
330
1F
100
AcDbEntity
  8
0
  6
Continuous
 62
     7
370
    30
100
AcDbLine
 10
3.9476619588
 20
5.4246752441
 30
0.0
 11
3.9476619588
 21
5.4188184718
 31
0.0
  0
LINE
  5
230
330
1F
100
AcDbEntity
  8
0
  6
Continuous
 62
     7
370
    30
100
AcDbLine
 10
3.9476619588
 20
5.4598986705
 30
0.0
 11
3.9476619588
 21
5.4540418982
 31
0.0
  0
LINE
  5
231
330
1F
100
AcDbEntity
  8
0
  6
Continuous
 62
     7
370
    30
100
AcDbLine
 10
5.7965921732
 20
5.255158989
 30
0.0
 11
5.4515921586
 21
5.255158989
 31
0.0
  0
LINE
  5
232
330
1F
100
AcDbEntity
  8
0
  6
Continuous
 62
     7
370
    30
100
AcDbLine
 10
5.5332114266
 20
5.630158957
 30
0.0
 11
5.4360921644
 21
5.630158957
 31
0.0
  0
LINE
  5
233
330
1F
100
AcDbEntity
  8
0
  6
Continuous
 62
     7
370
    30
100
AcDbLine
 10
5.550491457
 20
5.6201823656
 30
0.0
 11
5.5332114266
 21
5.630158957
 31
0.0
  0
LINE
  5
234
330
1F
100
AcDbEntity
  8
0
  6
Continuous
 62
     7
370
    30
100
AcDbLine
 10
5.5301310955
 20
5.602570469
 30
0.0
 11
5.550491457
 21
5.6143255199
 31
0.0
  0
LINE
  5
235
330
1F
100
AcDbEntity
  8
0
  6
Continuous
 62
     7
370
    30
100
AcDbLine
 10
5.550491457
 20
5.5849589392
 30
0.0
 11
5.5301310955
 21
5.59671399
 31
0.0
  0
LINE
  5
236
330
1F
100
AcDbEntity
  8
0
  6
Continuous
 62
     7
370
    30
100
AcDbLine
 10
5.5301310955
 20
5.5673470426
 30
0.0
 11
5.550491457
 21
5.5791020935
 31
0.0
  0
LINE
  5
237
330
1F
100
AcDbEntity
  8
0
  6
Continuous
 62
     7
370
    30
100
AcDbLine
 10
5.550491457
 20
5.5497355127
 30
0.0
 11
5.5301310955
 21
5.5614905636
 31
0.0
  0
LINE
  5
238
330
1F
100
AcDbEntity
  8
0
  6
Continuous
 62
     7
370
    30
100
AcDbLine
 10
5.5301310955
 20
5.5321236162
 30
0.0
 11
5.550491457
 21
5.5438786671
 31
0.0
  0
LINE
  5
239
330
1F
100
AcDbEntity
  8
0
  6
Continuous
 62
     7
370
    30
100
AcDbLine
 10
5.550491457
 20
5.5145120863
 30
0.0
 11
5.5301310955
 21
5.5262671372
 31
0.0
  0
LINE
  5
23A
330
1F
100
AcDbEntity
  8
0
  6
Continuous
 62
     7
370
    30
100
AcDbLine
 10
5.5301310955
 20
5.4969001898
 30
0.0
 11
5.550491457
 21
5.5086552406
 31
0.0
  0
LINE
  5
23B
330
1F
100
AcDbEntity
  8
0
  6
Continuous
 62
     7
370
    30
100
AcDbLine
 10
5.550491457
 20
5.4792886599
 30
0.0
 11
5.5301310955
 21
5.4910437107
 31
0.0
  0
LINE
  5
23C
330
1F
100
AcDbEntity
  8
0
  6
Continuous
 62
     7
370
    30
100
AcDbLine
 10
5.5301310955
 20
5.4616767633
 30
0.0
 11
5.550491457
 21
5.4734318142
 31
0.0
  0
LINE
  5
23D
330
1F
100
AcDbEntity
  8
0
  6
Continuous
 62
     7
370
    30
100
AcDbLine
 10
5.550491457
 20
5.4440652334
 30
0.0
 11
5.5301310955
 21
5.4558202843
 31
0.0
  0
LINE
  5
23E
330
1F
100
AcDbEntity
  8
0
  6
Continuous
 62
     7
370
    30
100
AcDbLine
 10
5.5301310955
 20
5.4264533369
 30
0.0
 11
5.550491457
 21
5.4382083878
 31
0.0
  0
LINE
  5
23F
330
1F
100
AcDbEntity
  8
0
  6
Continuous
 62
     7
370
    30
100
AcDbLine
 10
5.550491457
 20
5.408841807
 30
0.0
 11
5.5301310955
 21
5.4205968579
 31
0.0
  0
LINE
  5
240
330
1F
100
AcDbEntity
  8
0
  6
Continuous
 62
     7
370
    30
100
AcDbLine
 10
5.5301310955
 20
5.3912299105
 30
0.0
 11
5.550491457
 21
5.4029850347
 31
0.0
  0
LINE
  5
241
330
1F
100
AcDbEntity
  8
0
  6
Continuous
 62
     7
370
    30
100
AcDbLine
 10
5.5347323424
 20
5.3827168888
 30
0.0
 11
5.5301310955
 21
5.3853734315
 31
0.0
  0
ARC
  5
242
330
1F
100
AcDbEntity
  8
0
  6
Continuous
 62
     7
370
    30
100
AcDbCircle
 10
5.525059231
 20
5.3801810084
 30
0.0
 40
0.0100000000000086
100
AcDbArc
 50
336.1596651702
 51
14.6901250941
  0
ARC
  5
243
330
1F
100
AcDbEntity
  8
0
  6
Continuous
 62
     7
370
    30
100
AcDbCircle
 10
5.5420921659
 20
5.3461589862
 30
0.0
 40
0.0310000000000006
100
AcDbArc
 50
104.7376174516
 51
270.0
  0
LINE
  5
244
330
1F
100
AcDbEntity
  8
0
  6
Continuous
 62
     7
370
    30
100
AcDbLine
 10
5.706092167
 20
5.3151589692
 30
0.0
 11
5.5420921648
 21
5.3151589692
 31
0.0
  0
ARC
  5
245
330
1F
100
AcDbEntity
  8
0
  6
Continuous
 62
     7
370
    30
100
AcDbCircle
 10
5.7060921659
 20
5.3461589862
 30
0.0
 40
0.0310000000000006
100
AcDbArc
 50
270.0
 51
84.5504773049
  0
LINE
  5
246
330
1F
100
AcDbEntity
  8
0
  6
Continuous
 62
     7
370
    30
100
AcDbLine
 10
5.6976611723
 20
5.3894513777
 30
0.0
 11
5.6976611723
 21
5.3835862454
 31
0.0
  0
LINE
  5
247
330
1F
100
AcDbEntity
  8
0
  6
Continuous
 62
     7
370
    30
100
AcDbLine
 10
5.718022345
 20
5.4070634209
 30
0.0
 11
5.718022345
 21
5.4012068685
 31
0.0
  0
LINE
  5
248
330
1F
100
AcDbEntity
  8
0
  6
Continuous
 62
     7
370
    30
100
AcDbLine
 10
5.6976619835
 20
5.4246752441
 30
0.0
 11
5.6976619835
 21
5.4188184718
 31
0.0
  0
LINE
  5
249
330
1F
100
AcDbEntity
  8
0
  6
Continuous
 62
     7
370
    30
100
AcDbLine
 10
5.718022345
 20
5.442286774
 30
0.0
 11
5.718022345
 21
5.436430295
 31
0.0
  0
LINE
  5
24A
330
1F
100
AcDbEntity
  8
0
  6
Continuous
 62
     7
370
    30
100
AcDbLine
 10
5.6976619835
 20
5.4598986705
 30
0.0
 11
5.6976619835
 21
5.4540418982
 31
0.0
  0
LINE
  5
24B
330
1F
100
AcDbEntity
  8
0
  6
Continuous
 62
     7
370
    30
100
AcDbLine
 10
5.718022345
 20
5.4775102004
 30
0.0
 11
5.718022345
 21
5.4716537214
 31
0.0
  0
LINE
  5
24C
330
1F
100
AcDbEntity
  8
0
  6
Continuous
 62
     7
370
    30
100
AcDbLine
 10
5.718022345
 20
5.5127336268
 30
0.0
 11
5.718022345
 21
5.5068771478
 31
0.0
  0
LINE
  5
24D
330
1F
100
AcDbEntity
  8
0
  6
Continuous
 62
     7
370
    30
100
AcDbLine
 10
5.6976619835
 20
5.5303455234
 30
0.0
 11
5.6976619835
 21
5.5244887511
 31
0.0
  0
LINE
  5
24E
330
1F
100
AcDbEntity
  8
0
  6
Continuous
 62
     7
370
    30
100
AcDbLine
 10
5.718022345
 20
5.5479570533
 30
0.0
 11
5.718022345
 21
5.5421005743
 31
0.0
  0
LINE
  5
24F
330
1F
100
AcDbEntity
  8
0
  6
Continuous
 62
     7
370
    30
100
AcDbLine
 10
5.6976619835
 20
5.5655689498
 30
0.0
 11
5.6976619835
 21
5.5597121041
 31
0.0
  0
LINE
  5
250
330
1F
100
AcDbEntity
  8
0
  6
Continuous
 62
     7
370
    30
100
AcDbLine
 10
5.718022345
 20
5.5831804797
 30
0.0
 11
5.718022345
 21
5.5773240007
 31
0.0
  0
LINE
  5
251
330
1F
100
AcDbEntity
  8
0
  6
Continuous
 62
     7
370
    30
100
AcDbLine
 10
5.6976619835
 20
5.6007923763
 30
0.0
 11
5.6976619835
 21
5.5949355306
 31
0.0
  0
LINE
  5
252
330
1F
100
AcDbEntity
  8
0
  6
Continuous
 62
     7
370
    30
100
AcDbLine
 10
5.718022345
 20
5.6184039061
 30
0.0
 11
5.718022345
 21
5.6125474271
 31
0.0
  0
LINE
  5
253
330
1F
100
AcDbEntity
  8
0
  6
Continuous
 62
     7
370
    30
100
AcDbLine
 10
5.8120921674
 20
5.630158957
 30
0.0
 11
5.6976619835
 21
5.630158957
 31
0.0
  0
LINE
  5
254
330
1F
100
AcDbEntity
  8
0
  6
Continuous
 62
     7
370
    30
100
AcDbLine
 10
5.8740921629
 20
5.5665700116
 30
0.0
 11
5.8740921629
 21
5.5681589799
 31
0.0
  0
ARC
  5
255
330
1F
100
AcDbEntity
  8
0
  6
Continuous
 62
     7
370
    30
100
AcDbCircle
 10
5.8640921659
 20
5.5665700069
 30
0.0
 40
0.0099999999999909
100
AcDbArc
 50
246.7301760415
 51
360.0
  0
ARC
  5
256
330
1F
100
AcDbEntity
  8
0
  6
Continuous
 62
     7
370
    30
100
AcDbCircle
 10
5.8320921659
 20
5.4921589862
 30
0.0
 40
0.0710000000000112
100
AcDbArc
 50
66.7301760415
 51
232.4184423813
  0
ARC
  5
257
330
1F
100
AcDbEntity
  8
0
  6
Continuous
 62
     7
370
    30
100
AcDbCircle
 10
5.7765921659
 20
5.4200427605
 30
0.0
 40
0.0199999999999978
100
AcDbArc
 50
0.0
 51
52.4184423813
  0
LINE
  5
258
330
1F
100
AcDbEntity
  8
0
  6
Continuous
 62
     7
370
    30
100
AcDbLine
 10
5.7965921732
 20
5.255158989
 30
0.0
 11
5.7965921732
 21
5.4200427576
 31
0.0
  0
LINE
  5
259
330
1F
100
AcDbEntity
  8
0
  6
Continuous
 62
     7
370
    30
100
AcDbLine
 10
5.4515921586
 20
5.4200427576
 30
0.0
 11
5.4515921586
 21
5.255158989
 31
0.0
  0
ARC
  5
25A
330
1F
100
AcDbEntity
  8
0
  6
Continuous
 62
     7
370
    30
100
AcDbCircle
 10
5.4715921659
 20
5.4200427605
 30
0.0
 40
0.0199999999999997
100
AcDbArc
 50
127.5815576188
 51
180.0
  0
ARC
  5
25B
330
1F
100
AcDbEntity
  8
0
  6
Continuous
 62
     7
370
    30
100
AcDbCircle
 10
5.4160921659
 20
5.4921589862
 30
0.0
 40
0.0710000000000088
100
AcDbArc
 50
307.5815576188
 51
113.2698239585
  0
ARC
  5
25C
330
1F
100
AcDbEntity
  8
0
  6
Continuous
 62
     7
370
    30
100
AcDbCircle
 10
5.3840921659
 20
5.5665700069
 30
0.0
 40
0.0099999999999918
100
AcDbArc
 50
180.0
 51
293.2698239585
  0
LINE
  5
25D
330
1F
100
AcDbEntity
  8
0
  6
Continuous
 62
     7
370
    30
100
AcDbLine
 10
5.3740921689
 20
5.5681589799
 30
0.0
 11
5.3740921689
 21
5.5665700116
 31
0.0
  0
ARC
  5
25E
330
1F
100
AcDbEntity
  8
0
  6
Continuous
 62
     7
370
    30
100
AcDbCircle
 10
5.4360921659
 20
5.5681589862
 30
0.0
 40
0.0620000000000021
100
AcDbArc
 50
90.0
 51
180.0
  0
LINE
  5
25F
330
1F
100
AcDbEntity
  8
0
  6
Continuous
 62
     7
370
    30
100
AcDbLine
 10
5.550491457
 20
5.6143255199
 30
0.0
 11
5.550491457
 21
5.6201823656
 31
0.0
  0
LINE
  5
260
330
1F
100
AcDbEntity
  8
0
  6
Continuous
 62
     7
370
    30
100
AcDbLine
 10
5.5301310955
 20
5.59671399
 30
0.0
 11
5.5301310955
 21
5.602570469
 31
0.0
  0
LINE
  5
261
330
1F
100
AcDbEntity
  8
0
  6
Continuous
 62
     7
370
    30
100
AcDbLine
 10
5.550491457
 20
5.5791020935
 30
0.0
 11
5.550491457
 21
5.5849589392
 31
0.0
  0
LINE
  5
262
330
1F
100
AcDbEntity
  8
0
  6
Continuous
 62
     7
370
    30
100
AcDbLine
 10
5.5301310955
 20
5.5614905636
 30
0.0
 11
5.5301310955
 21
5.5673470426
 31
0.0
  0
LINE
  5
263
330
1F
100
AcDbEntity
  8
0
  6
Continuous
 62
     7
370
    30
100
AcDbLine
 10
5.550491457
 20
5.5438786671
 30
0.0
 11
5.550491457
 21
5.5497355127
 31
0.0
  0
LINE
  5
264
330
1F
100
AcDbEntity
  8
0
  6
Continuous
 62
     7
370
    30
100
AcDbLine
 10
5.5301310955
 20
5.5262671372
 30
0.0
 11
5.5301310955
 21
5.5321236162
 31
0.0
  0
LINE
  5
265
330
1F
100
AcDbEntity
  8
0
  6
Continuous
 62
     7
370
    30
100
AcDbLine
 10
5.550491457
 20
5.5086552406
 30
0.0
 11
5.550491457
 21
5.5145120863
 31
0.0
  0
LINE
  5
266
330
1F
100
AcDbEntity
  8
0
  6
Continuous
 62
     7
370
    30
100
AcDbLine
 10
5.5301310955
 20
5.4910437107
 30
0.0
 11
5.5301310955
 21
5.4969001898
 31
0.0
  0
LINE
  5
267
330
1F
100
AcDbEntity
  8
0
  6
Continuous
 62
     7
370
    30
100
AcDbLine
 10
5.550491457
 20
5.4734318142
 30
0.0
 11
5.550491457
 21
5.4792886599
 31
0.0
  0
LINE
  5
268
330
1F
100
AcDbEntity
  8
0
  6
Continuous
 62
     7
370
    30
100
AcDbLine
 10
5.5301310955
 20
5.4558202843
 30
0.0
 11
5.5301310955
 21
5.4616767633
 31
0.0
  0
LINE
  5
269
330
1F
100
AcDbEntity
  8
0
  6
Continuous
 62
     7
370
    30
100
AcDbLine
 10
5.550491457
 20
5.4382083878
 30
0.0
 11
5.550491457
 21
5.4440652334
 31
0.0
  0
LINE
  5
26A
330
1F
100
AcDbEntity
  8
0
  6
Continuous
 62
     7
370
    30
100
AcDbLine
 10
5.5301310955
 20
5.4205968579
 30
0.0
 11
5.5301310955
 21
5.4264533369
 31
0.0
  0
LINE
  5
26B
330
1F
100
AcDbEntity
  8
0
  6
Continuous
 62
     7
370
    30
100
AcDbLine
 10
5.550491457
 20
5.4029850347
 30
0.0
 11
5.550491457
 21
5.408841807
 31
0.0
  0
LINE
  5
26C
330
1F
100
AcDbEntity
  8
0
  6
Continuous
 62
     7
370
    30
100
AcDbLine
 10
5.5301310955
 20
5.3853734315
 30
0.0
 11
5.5301310955
 21
5.3912299105
 31
0.0
  0
LINE
  5
26D
330
1F
100
AcDbEntity
  8
0
  6
Continuous
 62
     7
370
    30
100
AcDbLine
 10
5.6976611723
 20
5.3835862454
 30
0.0
 11
5.7090362005
 21
5.3770188813
 31
0.0
  0
LINE
  5
26E
330
1F
100
AcDbEntity
  8
0
  6
Continuous
 62
     7
370
    30
100
AcDbLine
 10
5.718022345
 20
5.4012068685
 30
0.0
 11
5.6976611723
 21
5.3894513777
 31
0.0
  0
LINE
  5
26F
330
1F
100
AcDbEntity
  8
0
  6
Continuous
 62
     7
370
    30
100
AcDbLine
 10
5.6976619835
 20
5.4188184718
 30
0.0
 11
5.718022345
 21
5.4070634209
 31
0.0
  0
LINE
  5
270
330
1F
100
AcDbEntity
  8
0
  6
Continuous
 62
     7
370
    30
100
AcDbLine
 10
5.718022345
 20
5.436430295
 30
0.0
 11
5.6976619835
 21
5.4246752441
 31
0.0
  0
LINE
  5
271
330
1F
100
AcDbEntity
  8
0
  6
Continuous
 62
     7
370
    30
100
AcDbLine
 10
5.6976619835
 20
5.4540418982
 30
0.0
 11
5.718022345
 21
5.442286774
 31
0.0
  0
LINE
  5
272
330
1F
100
AcDbEntity
  8
0
  6
Continuous
 62
     7
370
    30
100
AcDbLine
 10
5.718022345
 20
5.4716537214
 30
0.0
 11
5.6976619835
 21
5.4598986705
 31
0.0
  0
LINE
  5
273
330
1F
100
AcDbEntity
  8
0
  6
Continuous
 62
     7
370
    30
100
AcDbLine
 10
5.6976619835
 20
5.4892653246
 30
0.0
 11
5.718022345
 21
5.4775102004
 31
0.0
  0
LINE
  5
274
330
1F
100
AcDbEntity
  8
0
  6
Continuous
 62
     7
370
    30
100
AcDbLine
 10
5.6976619835
 20
5.495122097
 30
0.0
 11
5.6976619835
 21
5.4892653246
 31
0.0
  0
LINE
  5
275
330
1F
100
AcDbEntity
  8
0
  6
Continuous
 62
     7
370
    30
100
AcDbLine
 10
5.718022345
 20
5.5068771478
 30
0.0
 11
5.6976619835
 21
5.495122097
 31
0.0
  0
LINE
  5
276
330
1F
100
AcDbEntity
  8
0
  6
Continuous
 62
     7
370
    30
100
AcDbLine
 10
5.6976619835
 20
5.5244887511
 30
0.0
 11
5.718022345
 21
5.5127336268
 31
0.0
  0
LINE
  5
277
330
1F
100
AcDbEntity
  8
0
  6
Continuous
 62
     7
370
    30
100
AcDbLine
 10
5.718022345
 20
5.5421005743
 30
0.0
 11
5.6976619835
 21
5.5303455234
 31
0.0
  0
LINE
  5
278
330
1F
100
AcDbEntity
  8
0
  6
Continuous
 62
     7
370
    30
100
AcDbLine
 10
5.6976619835
 20
5.5597121041
 30
0.0
 11
5.718022345
 21
5.5479570533
 31
0.0
  0
LINE
  5
279
330
1F
100
AcDbEntity
  8
0
  6
Continuous
 62
     7
370
    30
100
AcDbLine
 10
5.718022345
 20
5.5773240007
 30
0.0
 11
5.6976619835
 21
5.5655689498
 31
0.0
  0
LINE
  5
27A
330
1F
100
AcDbEntity
  8
0
  6
Continuous
 62
     7
370
    30
100
AcDbLine
 10
5.6976619835
 20
5.5949355306
 30
0.0
 11
5.718022345
 21
5.5831804797
 31
0.0
  0
LINE
  5
27B
330
1F
100
AcDbEntity
  8
0
  6
Continuous
 62
     7
370
    30
100
AcDbLine
 10
5.718022345
 20
5.6125474271
 30
0.0
 11
5.6976619835
 21
5.6007923763
 31
0.0
  0
LINE
  5
27C
330
1F
100
AcDbEntity
  8
0
  6
Continuous
 62
     7
370
    30
100
AcDbLine
 10
5.6976619835
 20
5.630158957
 30
0.0
 11
5.718022345
 21
5.6184039061
 31
0.0
  0
ARC
  5
27D
330
1F
100
AcDbEntity
  8
0
  6
Continuous
 62
     7
370
    30
100
AcDbCircle
 10
5.8120921659
 20
5.5681589862
 30
0.0
 40
0.0620000000000056
100
AcDbArc
 50
0.0
 51
90.0
  0
LINE
  5
27E
330
1F
100
AcDbEntity
  8
0
  6
Continuous
 62
     7
370
    30
100
AcDbLine
 10
7.5465921703
 20
5.255158989
 30
0.0
 11
7.2015921558
 21
5.255158989
 31
0.0
  0
LINE
  5
27F
330
1F
100
AcDbEntity
  8
0
  6
Continuous
 62
     7
370
    30
100
AcDbLine
 10
7.2832113596
 20
5.630158957
 30
0.0
 11
7.1860921615
 21
5.630158957
 31
0.0
  0
LINE
  5
280
330
1F
100
AcDbEntity
  8
0
  6
Continuous
 62
     7
370
    30
100
AcDbLine
 10
7.3004914267
 20
5.6201823656
 30
0.0
 11
7.2832113596
 21
5.630158957
 31
0.0
  0
LINE
  5
281
330
1F
100
AcDbEntity
  8
0
  6
Continuous
 62
     7
370
    30
100
AcDbLine
 10
7.2801311019
 20
5.602570469
 30
0.0
 11
7.3004914267
 21
5.6143255199
 31
0.0
  0
LINE
  5
282
330
1F
100
AcDbEntity
  8
0
  6
Continuous
 62
     7
370
    30
100
AcDbLine
 10
7.3004914267
 20
5.5849589392
 30
0.0
 11
7.2801311019
 21
5.59671399
 31
0.0
  0
LINE
  5
283
330
1F
100
AcDbEntity
  8
0
  6
Continuous
 62
     7
370
    30
100
AcDbLine
 10
7.2801311019
 20
5.5673470426
 30
0.0
 11
7.3004914267
 21
5.5791020935
 31
0.0
  0
LINE
  5
284
330
1F
100
AcDbEntity
  8
0
  6
Continuous
 62
     7
370
    30
100
AcDbLine
 10
7.2801311019
 20
5.5614905636
 30
0.0
 11
7.2801311019
 21
5.5673470426
 31
0.0
  0
LINE
  5
285
330
1F
100
AcDbEntity
  8
0
  6
Continuous
 62
     7
370
    30
100
AcDbLine
 10
7.3004914267
 20
5.5497355127
 30
0.0
 11
7.2801311019
 21
5.5614905636
 31
0.0
  0
LINE
  5
286
330
1F
100
AcDbEntity
  8
0
  6
Continuous
 62
     7
370
    30
100
AcDbLine
 10
7.2801311019
 20
5.5321236162
 30
0.0
 11
7.3004914267
 21
5.5438786671
 31
0.0
  0
LINE
  5
287
330
1F
100
AcDbEntity
  8
0
  6
Continuous
 62
     7
370
    30
100
AcDbLine
 10
7.2801311019
 20
5.5262671372
 30
0.0
 11
7.2801311019
 21
5.5321236162
 31
0.0
  0
LINE
  5
288
330
1F
100
AcDbEntity
  8
0
  6
Continuous
 62
     7
370
    30
100
AcDbLine
 10
7.3004914267
 20
5.5145120863
 30
0.0
 11
7.2801311019
 21
5.5262671372
 31
0.0
  0
LINE
  5
289
330
1F
100
AcDbEntity
  8
0
  6
Continuous
 62
     7
370
    30
100
AcDbLine
 10
7.3004914267
 20
5.5086552406
 30
0.0
 11
7.3004914267
 21
5.5145120863
 31
0.0
  0
LINE
  5
28A
330
1F
100
AcDbEntity
  8
0
  6
Continuous
 62
     7
370
    30
100
AcDbLine
 10
7.2801311019
 20
5.4969001898
 30
0.0
 11
7.3004914267
 21
5.5086552406
 31
0.0
  0
LINE
  5
28B
330
1F
100
AcDbEntity
  8
0
  6
Continuous
 62
     7
370
    30
100
AcDbLine
 10
7.2801311019
 20
5.4910437107
 30
0.0
 11
7.2801311019
 21
5.4969001898
 31
0.0
  0
LINE
  5
28C
330
1F
100
AcDbEntity
  8
0
  6
Continuous
 62
     7
370
    30
100
AcDbLine
 10
7.3004914267
 20
5.4792886599
 30
0.0
 11
7.2801311019
 21
5.4910437107
 31
0.0
  0
LINE
  5
28D
330
1F
100
AcDbEntity
  8
0
  6
Continuous
 62
     7
370
    30
100
AcDbLine
 10
7.3004914267
 20
5.4734318142
 30
0.0
 11
7.3004914267
 21
5.4792886599
 31
0.0
  0
LINE
  5
28E
330
1F
100
AcDbEntity
  8
0
  6
Continuous
 62
     7
370
    30
100
AcDbLine
 10
7.2801311019
 20
5.4616767633
 30
0.0
 11
7.3004914267
 21
5.4734318142
 31
0.0
  0
LINE
  5
28F
330
1F
100
AcDbEntity
  8
0
  6
Continuous
 62
     7
370
    30
100
AcDbLine
 10
7.2801311019
 20
5.4558202843
 30
0.0
 11
7.2801311019
 21
5.4616767633
 31
0.0
  0
LINE
  5
290
330
1F
100
AcDbEntity
  8
0
  6
Continuous
 62
     7
370
    30
100
AcDbLine
 10
7.3004914267
 20
5.4440652334
 30
0.0
 11
7.2801311019
 21
5.4558202843
 31
0.0
  0
LINE
  5
291
330
1F
100
AcDbEntity
  8
0
  6
Continuous
 62
     7
370
    30
100
AcDbLine
 10
7.3004914267
 20
5.4382083878
 30
0.0
 11
7.3004914267
 21
5.4440652334
 31
0.0
  0
LINE
  5
292
330
1F
100
AcDbEntity
  8
0
  6
Continuous
 62
     7
370
    30
100
AcDbLine
 10
7.2801311019
 20
5.4264533369
 30
0.0
 11
7.3004914267
 21
5.4382083878
 31
0.0
  0
LINE
  5
293
330
1F
100
AcDbEntity
  8
0
  6
Continuous
 62
     7
370
    30
100
AcDbLine
 10
7.2801311019
 20
5.4205968579
 30
0.0
 11
7.2801311019
 21
5.4264533369
 31
0.0
  0
LINE
  5
294
330
1F
100
AcDbEntity
  8
0
  6
Continuous
 62
     7
370
    30
100
AcDbLine
 10
7.3004914267
 20
5.408841807
 30
0.0
 11
7.2801311019
 21
5.4205968579
 31
0.0
  0
LINE
  5
295
330
1F
100
AcDbEntity
  8
0
  6
Continuous
 62
     7
370
    30
100
AcDbLine
 10
7.3004914267
 20
5.4029850347
 30
0.0
 11
7.3004914267
 21
5.408841807
 31
0.0
  0
LINE
  5
296
330
1F
100
AcDbEntity
  8
0
  6
Continuous
 62
     7
370
    30
100
AcDbLine
 10
7.2801311019
 20
5.3912299105
 30
0.0
 11
7.3004914267
 21
5.4029850347
 31
0.0
  0
LINE
  5
297
330
1F
100
AcDbEntity
  8
0
  6
Continuous
 62
     7
370
    30
100
AcDbLine
 10
7.2801311019
 20
5.3853734315
 30
0.0
 11
7.2801311019
 21
5.3912299105
 31
0.0
  0
LINE
  5
298
330
1F
100
AcDbEntity
  8
0
  6
Continuous
 62
     7
370
    30
100
AcDbLine
 10
7.2847322754
 20
5.3827168888
 30
0.0
 11
7.2801311019
 21
5.3853734315
 31
0.0
  0
ARC
  5
299
330
1F
100
AcDbEntity
  8
0
  6
Continuous
 62
     7
370
    30
100
AcDbCircle
 10
7.275059231
 20
5.3801810084
 30
0.0
 40
0.0100000000000095
100
AcDbArc
 50
336.1596651702
 51
14.6901250941
  0
ARC
  5
29A
330
1F
100
AcDbEntity
  8
0
  6
Continuous
 62
     7
370
    30
100
AcDbCircle
 10
7.2920921659
 20
5.3461589862
 30
0.0
 40
0.0309999999999998
100
AcDbArc
 50
104.7376174516
 51
270.0
  0
LINE
  5
29B
330
1F
100
AcDbEntity
  8
0
  6
Continuous
 62
     7
370
    30
100
AcDbLine
 10
7.4560921091
 20
5.3151589692
 30
0.0
 11
7.292092217
 21
5.3151589692
 31
0.0
  0
ARC
  5
29C
330
1F
100
AcDbEntity
  8
0
  6
Continuous
 62
     7
370
    30
100
AcDbCircle
 10
7.4560921659
 20
5.3461589862
 30
0.0
 40
0.0310000000000005
100
AcDbArc
 50
270.0
 51
84.5504773049
  0
LINE
  5
29D
330
1F
100
AcDbEntity
  8
0
  6
Continuous
 62
     7
370
    30
100
AcDbLine
 10
7.4476612199
 20
5.3835862454
 30
0.0
 11
7.4590362618
 21
5.3770188813
 31
0.0
  0
LINE
  5
29E
330
1F
100
AcDbEntity
  8
0
  6
Continuous
 62
     7
370
    30
100
AcDbLine
 10
7.4476612199
 20
5.3894513777
 30
0.0
 11
7.4476612199
 21
5.3835862454
 31
0.0
  0
LINE
  5
29F
330
1F
100
AcDbEntity
  8
0
  6
Continuous
 62
     7
370
    30
100
AcDbLine
 10
7.468022278
 20
5.4012068685
 30
0.0
 11
7.4476612199
 21
5.3894513777
 31
0.0
  0
LINE
  5
2A0
330
1F
100
AcDbEntity
  8
0
  6
Continuous
 62
     7
370
    30
100
AcDbLine
 10
7.468022278
 20
5.4070634209
 30
0.0
 11
7.468022278
 21
5.4012068685
 31
0.0
  0
LINE
  5
2A1
330
1F
100
AcDbEntity
  8
0
  6
Continuous
 62
     7
370
    30
100
AcDbLine
 10
7.4476619532
 20
5.4188184718
 30
0.0
 11
7.468022278
 21
5.4070634209
 31
0.0
  0
LINE
  5
2A2
330
1F
100
AcDbEntity
  8
0
  6
Continuous
 62
     7
370
    30
100
AcDbLine
 10
7.4476619532
 20
5.4246752441
 30
0.0
 11
7.4476619532
 21
5.4188184718
 31
0.0
  0
LINE
  5
2A3
330
1F
100
AcDbEntity
  8
0
  6
Continuous
 62
     7
370
    30
100
AcDbLine
 10
7.468022278
 20
5.436430295
 30
0.0
 11
7.4476619532
 21
5.4246752441
 31
0.0
  0
LINE
  5
2A4
330
1F
100
AcDbEntity
  8
0
  6
Continuous
 62
     7
370
    30
100
AcDbLine
 10
7.468022278
 20
5.442286774
 30
0.0
 11
7.468022278
 21
5.436430295
 31
0.0
  0
LINE
  5
2A5
330
1F
100
AcDbEntity
  8
0
  6
Continuous
 62
     7
370
    30
100
AcDbLine
 10
7.4476619532
 20
5.4540418982
 30
0.0
 11
7.468022278
 21
5.442286774
 31
0.0
  0
LINE
  5
2A6
330
1F
100
AcDbEntity
  8
0
  6
Continuous
 62
     7
370
    30
100
AcDbLine
 10
7.4476619532
 20
5.4598986705
 30
0.0
 11
7.4476619532
 21
5.4540418982
 31
0.0
  0
LINE
  5
2A7
330
1F
100
AcDbEntity
  8
0
  6
Continuous
 62
     7
370
    30
100
AcDbLine
 10
7.468022278
 20
5.4716537214
 30
0.0
 11
7.4476619532
 21
5.4598986705
 31
0.0
  0
LINE
  5
2A8
330
1F
100
AcDbEntity
  8
0
  6
Continuous
 62
     7
370
    30
100
AcDbLine
 10
7.468022278
 20
5.4775102004
 30
0.0
 11
7.468022278
 21
5.4716537214
 31
0.0
  0
LINE
  5
2A9
330
1F
100
AcDbEntity
  8
0
  6
Continuous
 62
     7
370
    30
100
AcDbLine
 10
7.4476619532
 20
5.4892653246
 30
0.0
 11
7.468022278
 21
5.4775102004
 31
0.0
  0
LINE
  5
2AA
330
1F
100
AcDbEntity
  8
0
  6
Continuous
 62
     7
370
    30
100
AcDbLine
 10
7.4476619532
 20
5.495122097
 30
0.0
 11
7.4476619532
 21
5.4892653246
 31
0.0
  0
LINE
  5
2AB
330
1F
100
AcDbEntity
  8
0
  6
Continuous
 62
     7
370
    30
100
AcDbLine
 10
7.468022278
 20
5.5068771478
 30
0.0
 11
7.4476619532
 21
5.495122097
 31
0.0
  0
LINE
  5
2AC
330
1F
100
AcDbEntity
  8
0
  6
Continuous
 62
     7
370
    30
100
AcDbLine
 10
7.468022278
 20
5.5127336268
 30
0.0
 11
7.468022278
 21
5.5068771478
 31
0.0
  0
LINE
  5
2AD
330
1F
100
AcDbEntity
  8
0
  6
Continuous
 62
     7
370
    30
100
AcDbLine
 10
7.4476619532
 20
5.5244887511
 30
0.0
 11
7.468022278
 21
5.5127336268
 31
0.0
  0
LINE
  5
2AE
330
1F
100
AcDbEntity
  8
0
  6
Continuous
 62
     7
370
    30
100
AcDbLine
 10
7.4476619532
 20
5.5303455234
 30
0.0
 11
7.4476619532
 21
5.5244887511
 31
0.0
  0
LINE
  5
2AF
330
1F
100
AcDbEntity
  8
0
  6
Continuous
 62
     7
370
    30
100
AcDbLine
 10
7.468022278
 20
5.5421005743
 30
0.0
 11
7.4476619532
 21
5.5303455234
 31
0.0
  0
LINE
  5
2B0
330
1F
100
AcDbEntity
  8
0
  6
Continuous
 62
     7
370
    30
100
AcDbLine
 10
7.468022278
 20
5.5479570533
 30
0.0
 11
7.468022278
 21
5.5421005743
 31
0.0
  0
LINE
  5
2B1
330
1F
100
AcDbEntity
  8
0
  6
Continuous
 62
     7
370
    30
100
AcDbLine
 10
7.4476619532
 20
5.5597121041
 30
0.0
 11
7.468022278
 21
5.5479570533
 31
0.0
  0
LINE
  5
2B2
330
1F
100
AcDbEntity
  8
0
  6
Continuous
 62
     7
370
    30
100
AcDbLine
 10
7.4476619532
 20
5.5655689498
 30
0.0
 11
7.4476619532
 21
5.5597121041
 31
0.0
  0
LINE
  5
2B3
330
1F
100
AcDbEntity
  8
0
  6
Continuous
 62
     7
370
    30
100
AcDbLine
 10
7.468022278
 20
5.5773240007
 30
0.0
 11
7.4476619532
 21
5.5655689498
 31
0.0
  0
LINE
  5
2B4
330
1F
100
AcDbEntity
  8
0
  6
Continuous
 62
     7
370
    30
100
AcDbLine
 10
7.468022278
 20
5.5831804797
 30
0.0
 11
7.468022278
 21
5.5773240007
 31
0.0
  0
LINE
  5
2B5
330
1F
100
AcDbEntity
  8
0
  6
Continuous
 62
     7
370
    30
100
AcDbLine
 10
7.4476619532
 20
5.5949355306
 30
0.0
 11
7.468022278
 21
5.5831804797
 31
0.0
  0
LINE
  5
2B6
330
1F
100
AcDbEntity
  8
0
  6
Continuous
 62
     7
370
    30
100
AcDbLine
 10
7.4476619532
 20
5.6007923763
 30
0.0
 11
7.4476619532
 21
5.5949355306
 31
0.0
  0
LINE
  5
2B7
330
1F
100
AcDbEntity
  8
0
  6
Continuous
 62
     7
370
    30
100
AcDbLine
 10
7.468022278
 20
5.6125474271
 30
0.0
 11
7.4476619532
 21
5.6007923763
 31
0.0
  0
LINE
  5
2B8
330
1F
100
AcDbEntity
  8
0
  6
Continuous
 62
     7
370
    30
100
AcDbLine
 10
7.468022278
 20
5.6184039061
 30
0.0
 11
7.468022278
 21
5.6125474271
 31
0.0
  0
LINE
  5
2B9
330
1F
100
AcDbEntity
  8
0
  6
Continuous
 62
     7
370
    30
100
AcDbLine
 10
7.4476619532
 20
5.630158957
 30
0.0
 11
7.468022278
 21
5.6184039061
 31
0.0
  0
LINE
  5
2BA
330
1F
100
AcDbEntity
  8
0
  6
Continuous
 62
     7
370
    30
100
AcDbLine
 10
7.5620921646
 20
5.630158957
 30
0.0
 11
7.4476619532
 21
5.630158957
 31
0.0
  0
ARC
  5
2BB
330
1F
100
AcDbEntity
  8
0
  6
Continuous
 62
     7
370
    30
100
AcDbCircle
 10
7.5620921659
 20
5.5681589862
 30
0.0
 40
0.0620000000000065
100
AcDbArc
 50
0.0
 51
90.0
  0
LINE
  5
2BC
330
1F
100
AcDbEntity
  8
0
  6
Continuous
 62
     7
370
    30
100
AcDbLine
 10
7.6240921417
 20
5.5665700116
 30
0.0
 11
7.6240921417
 21
5.5681589799
 31
0.0
  0
ARC
  5
2BD
330
1F
100
AcDbEntity
  8
0
  6
Continuous
 62
     7
370
    30
100
AcDbCircle
 10
7.6140921659
 20
5.5665700069
 30
0.0
 40
0.0099999999999901
100
AcDbArc
 50
246.7301760415
 51
360.0
  0
ARC
  5
2BE
330
1F
100
AcDbEntity
  8
0
  6
Continuous
 62
     7
370
    30
100
AcDbCircle
 10
7.5820921659
 20
5.4921589862
 30
0.0
 40
0.0710000000000107
100
AcDbArc
 50
66.7301760415
 51
232.4184423813
  0
ARC
  5
2BF
330
1F
100
AcDbEntity
  8
0
  6
Continuous
 62
     7
370
    30
100
AcDbCircle
 10
7.5265921659
 20
5.4200427605
 30
0.0
 40
0.0199999999999991
100
AcDbArc
 50
0.0
 51
52.4184423812
  0
LINE
  5
2C0
330
1F
100
AcDbEntity
  8
0
  6
Continuous
 62
     7
370
    30
100
AcDbLine
 10
7.5465921703
 20
5.255158989
 30
0.0
 11
7.5465921703
 21
5.4200427576
 31
0.0
  0
LINE
  5
2C1
330
1F
100
AcDbEntity
  8
0
  6
Continuous
 62
     7
370
    30
100
AcDbLine
 10
7.2015921558
 20
5.4200427576
 30
0.0
 11
7.2015921558
 21
5.255158989
 31
0.0
  0
ARC
  5
2C2
330
1F
100
AcDbEntity
  8
0
  6
Continuous
 62
     7
370
    30
100
AcDbCircle
 10
7.2215921659
 20
5.4200427605
 30
0.0
 40
0.0199999999999998
100
AcDbArc
 50
127.5815576187
 51
180.0
  0
ARC
  5
2C3
330
1F
100
AcDbEntity
  8
0
  6
Continuous
 62
     7
370
    30
100
AcDbCircle
 10
7.1660921659
 20
5.4921589862
 30
0.0
 40
0.0710000000000076
100
AcDbArc
 50
307.5815576188
 51
113.2698239585
  0
ARC
  5
2C4
330
1F
100
AcDbEntity
  8
0
  6
Continuous
 62
     7
370
    30
100
AcDbCircle
 10
7.1340921659
 20
5.5665700069
 30
0.0
 40
0.0099999999999927
100
AcDbArc
 50
180.0
 51
293.2698239585
  0
LINE
  5
2C5
330
1F
100
AcDbEntity
  8
0
  6
Continuous
 62
     7
370
    30
100
AcDbLine
 10
7.1240921844
 20
5.5681589799
 30
0.0
 11
7.1240921844
 21
5.5665700116
 31
0.0
  0
ARC
  5
2C6
330
1F
100
AcDbEntity
  8
0
  6
Continuous
 62
     7
370
    30
100
AcDbCircle
 10
7.1860921659
 20
5.5681589862
 30
0.0
 40
0.0620000000000021
100
AcDbArc
 50
90.0
 51
180.0
  0
LINE
  5
2C7
330
1F
100
AcDbEntity
  8
0
  6
Continuous
 62
     7
370
    30
100
AcDbLine
 10
7.3004914267
 20
5.6143255199
 30
0.0
 11
7.3004914267
 21
5.6201823656
 31
0.0
  0
LINE
  5
2C8
330
1F
100
AcDbEntity
  8
0
  6
Continuous
 62
     7
370
    30
100
AcDbLine
 10
7.2801311019
 20
5.59671399
 30
0.0
 11
7.2801311019
 21
5.602570469
 31
0.0
  0
LINE
  5
2C9
330
1F
100
AcDbEntity
  8
0
  6
Continuous
 62
     7
370
    30
100
AcDbLine
 10
7.3004914267
 20
5.5791020935
 30
0.0
 11
7.3004914267
 21
5.5849589392
 31
0.0
  0
LINE
  5
2CA
330
1F
100
AcDbEntity
  8
0
  6
Continuous
 62
     7
370
    30
100
AcDbLine
 10
7.3004914267
 20
5.5438786671
 30
0.0
 11
7.3004914267
 21
5.5497355127
 31
0.0
  0
LINE
  5
2CB
330
1F
100
AcDbEntity
  8
0
  6
Continuous
 62
     7
370
    30
100
AcDbLine
 10
4.6610921572
 20
6.2421589605
 30
0.0
 11
4.6610921572
 21
5.6755012399
 31
0.0
  0
LINE
  5
2CC
330
1F
100
AcDbEntity
  8
0
  6
Continuous
 62
     7
370
    30
100
AcDbLine
 10
4.6610921572
 20
5.6274600282
 30
0.0
 11
4.6610921572
 21
5.6171590138
 31
0.0
  0
LINE
  5
2CD
330
1F
100
AcDbEntity
  8
0
  6
Continuous
 62
     7
370
    30
100
AcDbLine
 10
4.6610921572
 20
6.2421589605
 30
0.0
 11
4.7240921694
 21
6.2421589605
 31
0.0
  0
LINE
  5
2CE
330
1F
100
AcDbEntity
  8
0
  6
Continuous
 62
     7
370
    30
100
AcDbLine
 10
3.0870920335
 20
6.2421589605
 30
0.0
 11
3.0870920335
 21
5.6755012399
 31
0.0
  0
LINE
  5
2CF
330
1F
100
AcDbEntity
  8
0
  6
Continuous
 62
     7
370
    30
100
AcDbLine
 10
3.0240920947
 20
6.2321590493
 30
0.0
 11
3.0240920947
 21
6.2421589605
 31
0.0
  0
LINE
  5
2D0
330
1F
100
AcDbEntity
  8
0
  6
Continuous
 62
     7
370
    30
100
AcDbLine
 10
3.0870920335
 20
6.2421589605
 30
0.0
 11
3.0240920947
 21
6.2421589605
 31
0.0
  0
LINE
  5
2D1
330
1F
100
AcDbEntity
  8
0
  6
Continuous
 62
     7
370
    30
100
AcDbLine
 10
4.6460921438
 20
5.7421590032
 30
0.0
 11
4.6610921572
 21
5.7421590032
 31
0.0
  0
LINE
  5
2D2
330
1F
100
AcDbEntity
  8
0
  6
Continuous
 62
     7
370
    30
100
AcDbLine
 10
4.6460921438
 20
6.2421589605
 30
0.0
 11
4.6460921438
 21
5.7421590032
 31
0.0
  0
LINE
  5
2D3
330
1F
100
AcDbEntity
  8
0
  6
Continuous
 62
     7
370
    30
100
AcDbLine
 10
4.6610921572
 20
6.2421589605
 30
0.0
 11
4.6460921438
 21
6.2421589605
 31
0.0
  0
LINE
  5
2D4
330
1F
100
AcDbEntity
  8
0
  6
Continuous
 62
     7
370
    30
100
AcDbLine
 10
3.1020920469
 20
6.2421589605
 30
0.0
 11
3.0870920335
 21
6.2421589605
 31
0.0
  0
LINE
  5
2D5
330
1F
100
AcDbEntity
  8
0
  6
Continuous
 62
     7
370
    30
100
AcDbLine
 10
3.1020920469
 20
5.7421590032
 30
0.0
 11
3.1020920469
 21
6.2421589605
 31
0.0
  0
LINE
  5
2D6
330
1F
100
AcDbEntity
  8
0
  6
Continuous
 62
     7
370
    30
100
AcDbLine
 10
3.0870920335
 20
5.7421590032
 30
0.0
 11
3.1020920469
 21
5.7421590032
 31
0.0
  0
LINE
  5
2D7
330
1F
100
AcDbEntity
  8
0
  6
Continuous
 62
     7
370
    30
100
AcDbLine
 10
3.1550920747
 20
6.2581589356
 30
0.0
 11
4.5930921894
 21
6.2581589356
 31
0.0
  0
LINE
  5
2D8
330
1F
100
AcDbEntity
  8
0
  6
Continuous
 62
     7
370
    30
100
AcDbLine
 10
3.1550920747
 20
6.3361590346
 30
0.0
 11
3.1550920747
 21
6.2581589356
 31
0.0
  0
LINE
  5
2D9
330
1F
100
AcDbEntity
  8
0
  6
Continuous
 62
     7
370
    30
100
AcDbLine
 10
3.1550920747
 20
6.3361590346
 30
0.0
 11
4.5930921894
 21
6.3361590346
 31
0.0
  0
LINE
  5
2DA
330
1F
100
AcDbEntity
  8
0
  6
Continuous
 62
     7
370
    30
100
AcDbLine
 10
4.5930921894
 20
6.2581589356
 30
0.0
 11
4.5930921894
 21
6.3361590346
 31
0.0
  0
LINE
  5
2DB
330
1F
100
AcDbEntity
  8
0
  6
Continuous
 62
     7
370
    30
100
AcDbLine
 10
3.1020920469
 20
6.2421589605
 30
0.0
 11
3.1550920747
 21
6.2421589605
 31
0.0
  0
LINE
  5
2DC
330
1F
100
AcDbEntity
  8
0
  6
Continuous
 62
     7
370
    30
100
AcDbLine
 10
3.1550920747
 20
6.2581589356
 30
0.0
 11
3.1550920747
 21
6.2421589605
 31
0.0
  0
LINE
  5
2DD
330
1F
100
AcDbEntity
  8
0
  6
Continuous
 62
     7
370
    30
100
AcDbLine
 10
4.5930921894
 20
6.2421589605
 30
0.0
 11
4.6460921438
 21
6.2421589605
 31
0.0
  0
LINE
  5
2DE
330
1F
100
AcDbEntity
  8
0
  6
Continuous
 62
     7
370
    30
100
AcDbLine
 10
4.5930921894
 20
6.2421589605
 30
0.0
 11
4.5930921894
 21
6.2581589356
 31
0.0
  0
LINE
  5
2DF
330
1F
100
AcDbEntity
  8
0
  6
Continuous
 62
     7
370
    30
100
AcDbLine
 10
4.6460921438
 20
5.7421590032
 30
0.0
 11
3.9883323023
 21
5.7421590032
 31
0.0
  0
LINE
  5
2E0
330
1F
100
AcDbEntity
  8
0
  6
Continuous
 62
     7
370
    30
100
AcDbLine
 10
3.9713681516
 20
5.7421590032
 30
0.0
 11
3.7768161858
 21
5.7421590032
 31
0.0
  0
LINE
  5
2E1
330
1F
100
AcDbEntity
  8
0
  6
Continuous
 62
     7
370
    30
100
AcDbLine
 10
3.7598520351
 20
5.7421590032
 30
0.0
 11
3.1020920469
 21
5.7421590032
 31
0.0
  0
LINE
  5
2E2
330
1F
100
AcDbEntity
  8
0
  6
Continuous
 62
     7
370
    30
100
AcDbLine
 10
4.1240921474
 20
5.7081589826
 30
0.0
 11
4.1240921474
 21
5.7421590032
 31
0.0
  0
LINE
  5
2E3
330
1F
100
AcDbEntity
  8
0
  6
Continuous
 62
     7
370
    30
100
AcDbLine
 10
3.6240921901
 20
5.7421590032
 30
0.0
 11
3.6240921901
 21
5.7081589826
 31
0.0
  0
LINE
  5
2E4
330
1F
100
AcDbEntity
  8
0
  6
Continuous
 62
     7
370
    30
100
AcDbLine
 10
4.1240921474
 20
5.630158957
 30
0.0
 11
4.0620921703
 21
5.630158957
 31
0.0
  0
LINE
  5
2E5
330
1F
100
AcDbEntity
  8
0
  6
Continuous
 62
     7
370
    30
100
AcDbLine
 10
3.9476619588
 20
5.630158957
 30
0.0
 11
3.7832113652
 21
5.630158957
 31
0.0
  0
LINE
  5
2E6
330
1F
100
AcDbEntity
  8
0
  6
Continuous
 62
     7
370
    30
100
AcDbLine
 10
3.6860921672
 20
5.630158957
 30
0.0
 11
3.6240921901
 21
5.630158957
 31
0.0
  0
LINE
  5
2E7
330
1F
100
AcDbEntity
  8
0
  6
Continuous
 62
     7
370
    30
100
AcDbLine
 10
3.6240921901
 20
5.630158957
 30
0.0
 11
3.6240921901
 21
5.6712068895
 31
0.0
  0
LINE
  5
2E8
330
1F
100
AcDbEntity
  8
0
  6
Continuous
 62
     7
370
    30
100
AcDbLine
 10
3.6240921901
 20
5.6843216713
 30
0.0
 11
3.6240921901
 21
5.7081589826
 31
0.0
  0
LINE
  5
2E9
330
1F
100
AcDbEntity
  8
0
  6
Continuous
 62
     7
370
    30
100
AcDbLine
 10
4.1240921474
 20
5.7081589826
 30
0.0
 11
4.1240921474
 21
5.6843216713
 31
0.0
  0
LINE
  5
2EA
330
1F
100
AcDbEntity
  8
0
  6
Continuous
 62
     7
370
    30
100
AcDbLine
 10
4.1240921474
 20
5.6712068895
 30
0.0
 11
4.1240921474
 21
5.630158957
 31
0.0
  0
LINE
  5
2EB
330
1F
100
AcDbEntity
  8
0
  6
Continuous
 62
     7
370
    30
100
AcDbLine
 10
8.1610922983
 20
6.2421589605
 30
0.0
 11
8.1610922983
 21
5.6755012399
 31
0.0
  0
LINE
  5
2EC
330
1F
100
AcDbEntity
  8
0
  6
Continuous
 62
     7
370
    30
100
AcDbLine
 10
8.1610922983
 20
6.2421589605
 30
0.0
 11
8.2240922371
 21
6.2421589605
 31
0.0
  0
LINE
  5
2ED
330
1F
100
AcDbEntity
  8
0
  6
Continuous
 62
     7
370
    30
100
AcDbLine
 10
8.2240922371
 20
6.2321590493
 30
0.0
 11
8.2240922371
 21
6.2421589605
 31
0.0
  0
LINE
  5
2EE
330
1F
100
AcDbEntity
  8
0
  6
Continuous
 62
     7
370
    30
100
AcDbLine
 10
6.5870921746
 20
6.2421589605
 30
0.0
 11
6.5240921624
 21
6.2421589605
 31
0.0
  0
LINE
  5
2EF
330
1F
100
AcDbEntity
  8
0
  6
Continuous
 62
     7
370
    30
100
AcDbLine
 10
6.5870921746
 20
6.2421589605
 30
0.0
 11
6.5870921746
 21
5.6755012399
 31
0.0
  0
LINE
  5
2F0
330
1F
100
AcDbEntity
  8
0
  6
Continuous
 62
     7
370
    30
100
AcDbLine
 10
6.5870921746
 20
5.6274600282
 30
0.0
 11
6.5870921746
 21
5.6171590138
 31
0.0
  0
LINE
  5
2F1
330
1F
100
AcDbEntity
  8
0
  6
Continuous
 62
     7
370
    30
100
AcDbLine
 10
8.1460922849
 20
5.7421590032
 30
0.0
 11
8.1610922983
 21
5.7421590032
 31
0.0
  0
LINE
  5
2F2
330
1F
100
AcDbEntity
  8
0
  6
Continuous
 62
     7
370
    30
100
AcDbLine
 10
8.1460922849
 20
6.2421589605
 30
0.0
 11
8.1460922849
 21
5.7421590032
 31
0.0
  0
LINE
  5
2F3
330
1F
100
AcDbEntity
  8
0
  6
Continuous
 62
     7
370
    30
100
AcDbLine
 10
8.1610922983
 20
6.2421589605
 30
0.0
 11
8.1460922849
 21
6.2421589605
 31
0.0
  0
LINE
  5
2F4
330
1F
100
AcDbEntity
  8
0
  6
Continuous
 62
     7
370
    30
100
AcDbLine
 10
6.602092188
 20
5.7421590032
 30
0.0
 11
6.602092188
 21
6.2421589605
 31
0.0
  0
LINE
  5
2F5
330
1F
100
AcDbEntity
  8
0
  6
Continuous
 62
     7
370
    30
100
AcDbLine
 10
6.602092188
 20
6.2421589605
 30
0.0
 11
6.5870921746
 21
6.2421589605
 31
0.0
  0
LINE
  5
2F6
330
1F
100
AcDbEntity
  8
0
  6
Continuous
 62
     7
370
    30
100
AcDbLine
 10
6.5870921746
 20
5.7421590032
 30
0.0
 11
6.602092188
 21
5.7421590032
 31
0.0
  0
LINE
  5
2F7
330
1F
100
AcDbEntity
  8
0
  6
Continuous
 62
     7
370
    30
100
AcDbLine
 10
8.0930922571
 20
6.2581589356
 30
0.0
 11
8.0930922571
 21
6.3361590346
 31
0.0
  0
LINE
  5
2F8
330
1F
100
AcDbEntity
  8
0
  6
Continuous
 62
     7
370
    30
100
AcDbLine
 10
6.6550921424
 20
6.2581589356
 30
0.0
 11
8.0930922571
 21
6.2581589356
 31
0.0
  0
LINE
  5
2F9
330
1F
100
AcDbEntity
  8
0
  6
Continuous
 62
     7
370
    30
100
AcDbLine
 10
6.6550921424
 20
6.3361590346
 30
0.0
 11
6.6550921424
 21
6.2581589356
 31
0.0
  0
LINE
  5
2FA
330
1F
100
AcDbEntity
  8
0
  6
Continuous
 62
     7
370
    30
100
AcDbLine
 10
6.6550921424
 20
6.3361590346
 30
0.0
 11
8.0930922571
 21
6.3361590346
 31
0.0
  0
LINE
  5
2FB
330
1F
100
AcDbEntity
  8
0
  6
Continuous
 62
     7
370
    30
100
AcDbLine
 10
8.1460922849
 20
5.7421590032
 30
0.0
 11
7.4883322967
 21
5.7421590032
 31
0.0
  0
LINE
  5
2FC
330
1F
100
AcDbEntity
  8
0
  6
Continuous
 62
     7
370
    30
100
AcDbLine
 10
7.471368146
 20
5.7421590032
 30
0.0
 11
7.2768161802
 21
5.7421590032
 31
0.0
  0
LINE
  5
2FD
330
1F
100
AcDbEntity
  8
0
  6
Continuous
 62
     7
370
    30
100
AcDbLine
 10
7.2598520295
 20
5.7421590032
 30
0.0
 11
6.602092188
 21
5.7421590032
 31
0.0
  0
LINE
  5
2FE
330
1F
100
AcDbEntity
  8
0
  6
Continuous
 62
     7
370
    30
100
AcDbLine
 10
6.602092188
 20
6.2421589605
 30
0.0
 11
6.6550921424
 21
6.2421589605
 31
0.0
  0
LINE
  5
2FF
330
1F
100
AcDbEntity
  8
0
  6
Continuous
 62
     7
370
    30
100
AcDbLine
 10
6.6550921424
 20
6.2581589356
 30
0.0
 11
6.6550921424
 21
6.2421589605
 31
0.0
  0
LINE
  5
300
330
1F
100
AcDbEntity
  8
0
  6
Continuous
 62
     7
370
    30
100
AcDbLine
 10
8.0930922571
 20
6.2421589605
 30
0.0
 11
8.0930922571
 21
6.2581589356
 31
0.0
  0
LINE
  5
301
330
1F
100
AcDbEntity
  8
0
  6
Continuous
 62
     7
370
    30
100
AcDbLine
 10
8.0930922571
 20
6.2421589605
 30
0.0
 11
8.1460922849
 21
6.2421589605
 31
0.0
  0
LINE
  5
302
330
1F
100
AcDbEntity
  8
0
  6
Continuous
 62
     7
370
    30
100
AcDbLine
 10
7.6240921417
 20
5.7081589826
 30
0.0
 11
7.6240921417
 21
5.7421590032
 31
0.0
  0
LINE
  5
303
330
1F
100
AcDbEntity
  8
0
  6
Continuous
 62
     7
370
    30
100
AcDbLine
 10
7.1240921844
 20
5.7421590032
 30
0.0
 11
7.1240921844
 21
5.7081589826
 31
0.0
  0
LINE
  5
304
330
1F
100
AcDbEntity
  8
0
  6
Continuous
 62
     7
370
    30
100
AcDbLine
 10
7.6240921417
 20
5.7081589826
 30
0.0
 11
7.6240921417
 21
5.6843216713
 31
0.0
  0
LINE
  5
305
330
1F
100
AcDbEntity
  8
0
  6
Continuous
 62
     7
370
    30
100
AcDbLine
 10
7.6240921417
 20
5.6712068895
 30
0.0
 11
7.6240921417
 21
5.630158957
 31
0.0
  0
LINE
  5
306
330
1F
100
AcDbEntity
  8
0
  6
Continuous
 62
     7
370
    30
100
AcDbLine
 10
7.6240921417
 20
5.630158957
 30
0.0
 11
7.5620921646
 21
5.630158957
 31
0.0
  0
LINE
  5
307
330
1F
100
AcDbEntity
  8
0
  6
Continuous
 62
     7
370
    30
100
AcDbLine
 10
7.4476619532
 20
5.630158957
 30
0.0
 11
7.2832113596
 21
5.630158957
 31
0.0
  0
LINE
  5
308
330
1F
100
AcDbEntity
  8
0
  6
Continuous
 62
     7
370
    30
100
AcDbLine
 10
7.1860921615
 20
5.630158957
 30
0.0
 11
7.1240921844
 21
5.630158957
 31
0.0
  0
LINE
  5
309
330
1F
100
AcDbEntity
  8
0
  6
Continuous
 62
     7
370
    30
100
AcDbLine
 10
7.1240921844
 20
5.630158957
 30
0.0
 11
7.1240921844
 21
5.6712068895
 31
0.0
  0
LINE
  5
30A
330
1F
100
AcDbEntity
  8
0
  6
Continuous
 62
     7
370
    30
100
AcDbLine
 10
7.1240921844
 20
5.6843216713
 30
0.0
 11
7.1240921844
 21
5.7081589826
 31
0.0
  0
LINE
  5
30B
330
1F
100
AcDbEntity
  8
0
  6
Continuous
 62
     7
370
    30
100
AcDbLine
 10
6.4110921544
 20
6.2421589605
 30
0.0
 11
6.4740921666
 21
6.2421589605
 31
0.0
  0
LINE
  5
30C
330
1F
100
AcDbEntity
  8
0
  6
Continuous
 62
     7
370
    30
100
AcDbLine
 10
6.4110921544
 20
6.2421589605
 30
0.0
 11
6.4110921544
 21
5.6755012399
 31
0.0
  0
LINE
  5
30D
330
1F
100
AcDbEntity
  8
0
  6
Continuous
 62
     7
370
    30
100
AcDbLine
 10
6.4110921544
 20
5.6274600282
 30
0.0
 11
6.4110921544
 21
5.6171590138
 31
0.0
  0
LINE
  5
30E
330
1F
100
AcDbEntity
  8
0
  6
Continuous
 62
     7
370
    30
100
AcDbLine
 10
4.8370921774
 20
6.2421589605
 30
0.0
 11
4.7740921652
 21
6.2421589605
 31
0.0
  0
LINE
  5
30F
330
1F
100
AcDbEntity
  8
0
  6
Continuous
 62
     7
370
    30
100
AcDbLine
 10
4.8370921774
 20
6.2421589605
 30
0.0
 11
4.8370921774
 21
5.6755012399
 31
0.0
  0
LINE
  5
310
330
1F
100
AcDbEntity
  8
0
  6
Continuous
 62
     7
370
    30
100
AcDbLine
 10
4.8370921774
 20
5.6274600282
 30
0.0
 11
4.8370921774
 21
5.6171590138
 31
0.0
  0
LINE
  5
311
330
1F
100
AcDbEntity
  8
0
  6
Continuous
 62
     7
370
    30
100
AcDbLine
 10
6.396092141
 20
5.7421590032
 30
0.0
 11
6.4110921544
 21
5.7421590032
 31
0.0
  0
LINE
  5
312
330
1F
100
AcDbEntity
  8
0
  6
Continuous
 62
     7
370
    30
100
AcDbLine
 10
6.396092141
 20
6.2421589605
 30
0.0
 11
6.396092141
 21
5.7421590032
 31
0.0
  0
LINE
  5
313
330
1F
100
AcDbEntity
  8
0
  6
Continuous
 62
     7
370
    30
100
AcDbLine
 10
6.4110921544
 20
6.2421589605
 30
0.0
 11
6.396092141
 21
6.2421589605
 31
0.0
  0
LINE
  5
314
330
1F
100
AcDbEntity
  8
0
  6
Continuous
 62
     7
370
    30
100
AcDbLine
 10
4.8520921908
 20
5.7421590032
 30
0.0
 11
4.8520921908
 21
6.2421589605
 31
0.0
  0
LINE
  5
315
330
1F
100
AcDbEntity
  8
0
  6
Continuous
 62
     7
370
    30
100
AcDbLine
 10
4.8520921908
 20
6.2421589605
 30
0.0
 11
4.8370921774
 21
6.2421589605
 31
0.0
  0
LINE
  5
316
330
1F
100
AcDbEntity
  8
0
  6
Continuous
 62
     7
370
    30
100
AcDbLine
 10
4.8370921774
 20
5.7421590032
 30
0.0
 11
4.8520921908
 21
5.7421590032
 31
0.0
  0
LINE
  5
317
330
1F
100
AcDbEntity
  8
0
  6
Continuous
 62
     7
370
    30
100
AcDbLine
 10
6.396092141
 20
5.7421590032
 30
0.0
 11
5.7383322354
 21
5.7421590032
 31
0.0
  0
LINE
  5
318
330
1F
100
AcDbEntity
  8
0
  6
Continuous
 62
     7
370
    30
100
AcDbLine
 10
5.7213680755
 20
5.7421590032
 30
0.0
 11
5.5268162563
 21
5.7421590032
 31
0.0
  0
LINE
  5
319
330
1F
100
AcDbEntity
  8
0
  6
Continuous
 62
     7
370
    30
100
AcDbLine
 10
5.5098520964
 20
5.7421590032
 30
0.0
 11
4.8520921908
 21
5.7421590032
 31
0.0
  0
LINE
  5
31A
330
1F
100
AcDbEntity
  8
0
  6
Continuous
 62
     7
370
    30
100
AcDbLine
 10
4.8520921908
 20
6.2421589605
 30
0.0
 11
4.9050921452
 21
6.2421589605
 31
0.0
  0
LINE
  5
31B
330
1F
100
AcDbEntity
  8
0
  6
Continuous
 62
     7
370
    30
100
AcDbLine
 10
4.9050921452
 20
6.2581589356
 30
0.0
 11
4.9050921452
 21
6.2421589605
 31
0.0
  0
LINE
  5
31C
330
1F
100
AcDbEntity
  8
0
  6
Continuous
 62
     7
370
    30
100
AcDbLine
 10
4.9050921452
 20
6.2581589356
 30
0.0
 11
6.3430921866
 21
6.2581589356
 31
0.0
  0
LINE
  5
31D
330
1F
100
AcDbEntity
  8
0
  6
Continuous
 62
     7
370
    30
100
AcDbLine
 10
6.3430921866
 20
6.2421589605
 30
0.0
 11
6.3430921866
 21
6.2581589356
 31
0.0
  0
LINE
  5
31E
330
1F
100
AcDbEntity
  8
0
  6
Continuous
 62
     7
370
    30
100
AcDbLine
 10
6.3430921866
 20
6.2421589605
 30
0.0
 11
6.396092141
 21
6.2421589605
 31
0.0
  0
LINE
  5
31F
330
1F
100
AcDbEntity
  8
0
  6
Continuous
 62
     7
370
    30
100
AcDbLine
 10
6.3430921866
 20
6.2581589356
 30
0.0
 11
6.3430921866
 21
6.3361590346
 31
0.0
  0
LINE
  5
320
330
1F
100
AcDbEntity
  8
0
  6
Continuous
 62
     7
370
    30
100
AcDbLine
 10
4.9050921452
 20
6.3361590346
 30
0.0
 11
4.9050921452
 21
6.2581589356
 31
0.0
  0
LINE
  5
321
330
1F
100
AcDbEntity
  8
0
  6
Continuous
 62
     7
370
    30
100
AcDbLine
 10
4.9050921452
 20
6.3361590346
 30
0.0
 11
6.3430921866
 21
6.3361590346
 31
0.0
  0
LINE
  5
322
330
1F
100
AcDbEntity
  8
0
  6
Continuous
 62
     7
370
    30
100
AcDbLine
 10
5.8740921629
 20
5.7081589826
 30
0.0
 11
5.8740921629
 21
5.7421590032
 31
0.0
  0
LINE
  5
323
330
1F
100
AcDbEntity
  8
0
  6
Continuous
 62
     7
370
    30
100
AcDbLine
 10
5.3740921689
 20
5.7421590032
 30
0.0
 11
5.3740921689
 21
5.7081589826
 31
0.0
  0
LINE
  5
324
330
1F
100
AcDbEntity
  8
0
  6
Continuous
 62
     7
370
    30
100
AcDbLine
 10
5.8740921629
 20
5.7081589826
 30
0.0
 11
5.8740921629
 21
5.6843216713
 31
0.0
  0
LINE
  5
325
330
1F
100
AcDbEntity
  8
0
  6
Continuous
 62
     7
370
    30
100
AcDbLine
 10
5.8740921629
 20
5.6712068895
 30
0.0
 11
5.8740921629
 21
5.630158957
 31
0.0
  0
LINE
  5
326
330
1F
100
AcDbEntity
  8
0
  6
Continuous
 62
     7
370
    30
100
AcDbLine
 10
5.8740921629
 20
5.630158957
 30
0.0
 11
5.8120921674
 21
5.630158957
 31
0.0
  0
LINE
  5
327
330
1F
100
AcDbEntity
  8
0
  6
Continuous
 62
     7
370
    30
100
AcDbLine
 10
5.6976619835
 20
5.630158957
 30
0.0
 11
5.5332114266
 21
5.630158957
 31
0.0
  0
LINE
  5
328
330
1F
100
AcDbEntity
  8
0
  6
Continuous
 62
     7
370
    30
100
AcDbLine
 10
5.4360921644
 20
5.630158957
 30
0.0
 11
5.3740921689
 21
5.630158957
 31
0.0
  0
LINE
  5
329
330
1F
100
AcDbEntity
  8
0
  6
Continuous
 62
     7
370
    30
100
AcDbLine
 10
5.3740921689
 20
5.630158957
 30
0.0
 11
5.3740921689
 21
5.6712068895
 31
0.0
  0
LINE
  5
32A
330
1F
100
AcDbEntity
  8
0
  6
Continuous
 62
     7
370
    30
100
AcDbLine
 10
5.3740921689
 20
5.6843216713
 30
0.0
 11
5.3740921689
 21
5.7081589826
 31
0.0
  0
LINE
  5
32B
330
1F
100
AcDbEntity
  8
0
  6
Continuous
 62
     8
370
    30
100
AcDbLine
 10
3.6240921901
 20
5.7081589826
 30
0.0
 11
3.6904328637
 21
5.7081589826
 31
0.0
  0
LINE
  5
32C
330
1F
100
AcDbEntity
  8
0
  6
Continuous
 62
     8
370
    30
100
AcDbLine
 10
3.7260357857
 20
5.7081589826
 30
0.0
 11
4.0221485517
 21
5.7081589826
 31
0.0
  0
LINE
  5
32D
330
1F
100
AcDbEntity
  8
0
  6
Continuous
 62
     8
370
    30
100
AcDbLine
 10
4.0577513271
 20
5.7081589826
 30
0.0
 11
4.1240921474
 21
5.7081589826
 31
0.0
  0
LINE
  5
32E
330
1F
100
AcDbEntity
  8
0
  6
Continuous
 62
     8
370
    30
100
AcDbLine
 10
7.1240921844
 20
5.7081589826
 30
0.0
 11
7.1904330047
 21
5.7081589826
 31
0.0
  0
LINE
  5
32F
330
1F
100
AcDbEntity
  8
0
  6
Continuous
 62
     8
370
    30
100
AcDbLine
 10
7.2260357801
 20
5.7081589826
 30
0.0
 11
7.5221485461
 21
5.7081589826
 31
0.0
  0
LINE
  5
330
330
1F
100
AcDbEntity
  8
0
  6
Continuous
 62
     8
370
    30
100
AcDbLine
 10
7.5577514681
 20
5.7081589826
 30
0.0
 11
7.6240921417
 21
5.7081589826
 31
0.0
  0
LINE
  5
331
330
1F
100
AcDbEntity
  8
0
  6
Continuous
 62
     8
370
    30
100
AcDbLine
 10
5.3740921689
 20
5.7081589826
 30
0.0
 11
5.4404329342
 21
5.7081589826
 31
0.0
  0
LINE
  5
332
330
1F
100
AcDbEntity
  8
0
  6
Continuous
 62
     8
370
    30
100
AcDbLine
 10
5.4760357554
 20
5.7081589826
 30
0.0
 11
5.7721485764
 21
5.7081589826
 31
0.0
  0
LINE
  5
333
330
1F
100
AcDbEntity
  8
0
  6
Continuous
 62
     8
370
    30
100
AcDbLine
 10
5.8077513976
 20
5.7081589826
 30
0.0
 11
5.8740921629
 21
5.7081589826
 31
0.0
  0
MTEXT
  5
335
330
1F
100
AcDbEntity
  8
FORMAT
100
AcDbMText
 10
5.3448847926
 20
3.7119045908
 30
0.0
 40
0.125
 41
0.0
 71
     1
 72
     1
  1
ML-39, 3 SLOT, 22
  7
SLDTEXTSTYLE0
 73
     1
 44
1.0
  0
ENDSEC
  0
SECTION
  2
OBJECTS
  0
DICTIONARY
  5
C
330
0
100
AcDbDictionary
281
     1
  3
ACAD_GROUP
350
D
  3
ACAD_LAYOUT
350
1A
  3
ACAD_MLINESTYLE
350
17
  3
ACAD_PLOTSETTINGS
350
19
  3
ACAD_PLOTSTYLENAME
350
E
  3
ACAD_SCALELIST
350
47
  0
DICTIONARY
  5
D
102
{ACAD_REACTORS
330
C
102
}
330
C
100
AcDbDictionary
281
     1
  0
DICTIONARY
  5
1A
102
{ACAD_REACTORS
330
C
102
}
330
C
100
AcDbDictionary
281
     1
  3
Layout1
350
1E
  3
Layout2
350
26
  3
Model
350
22
  0
DICTIONARY
  5
17
102
{ACAD_REACTORS
330
C
102
}
330
C
100
AcDbDictionary
281
     1
  3
Standard
350
18
  0
DICTIONARY
  5
19
102
{ACAD_REACTORS
330
C
102
}
330
C
100
AcDbDictionary
281
     1
  0
ACDBDICTIONARYWDFLT
  5
E
102
{ACAD_REACTORS
330
C
102
}
330
C
100
AcDbDictionary
281
     1
  3
Normal
350
F
100
AcDbDictionaryWithDefault
340
F
  0
DICTIONARY
  5
47
102
{ACAD_REACTORS
330
C
102
}
330
C
100
AcDbDictionary
281
     1
  3
A0
350
48
  3
A1
350
49
  3
A2
350
4A
  3
A3
350
4B
  3
A4
350
4C
  3
A5
350
4D
  3
A6
350
4E
  3
A7
350
4F
  3
A8
350
50
  3
A9
350
51
  3
B0
350
52
  3
B1
350
53
  3
B2
350
54
  3
B3
350
55
  3
B4
350
56
  3
B5
350
57
  3
B6
350
58
  3
B7
350
59
  3
B8
350
5A
  3
B9
350
5B
  3
C0
350
5C
  3
C1
350
5D
  3
C2
350
5E
  3
C3
350
5F
  3
C4
350
60
  3
C5
350
61
  3
C6
350
62
  3
C7
350
63
  3
C8
350
64
  3
C9
350
65
  3
D0
350
66
  3
D1
350
67
  3
D2
350
68
  0
LAYOUT
  5
1E
102
{ACAD_REACTORS
330
1A
102
}
330
1A
100
AcDbPlotSettings
  1

  2
none_device
  4

  6

 40
0.0
 41
0.0
 42
0.0
 43
0.0
 44
0.0
 45
0.0
 46
0.0
 47
0.0
 48
0.0
 49
0.0
140
0.0
141
0.0
142
1.0
143
1.0
 70
   688
 72
     0
 73
     0
 74
     5
  7

 75
    16
147
1.0
148
0.0
149
0.0
100
AcDbLayout
  1
Layout1
 70
     1
 71
     1
 10
0.0
 20
0.0
 11
12.0
 21
9.0
 12
0.0
 22
0.0
 32
0.0
 14
1.0000000000E+20
 24
1.0000000000E+20
 34
1.0000000000E+20
 15
-1.0000000000E+20
 25
-1.0000000000E+20
 35
-1.0000000000E+20
146
0.0
 13
0.0
 23
0.0
 33
0.0
 16
1.0
 26
0.0
 36
0.0
 17
0.0
 27
1.0
 37
0.0
 76
     0
330
1B
  0
LAYOUT
  5
26
102
{ACAD_REACTORS
330
1A
102
}
330
1A
100
AcDbPlotSettings
  1

  2
none_device
  4

  6

 40
0.0
 41
0.0
 42
0.0
 43
0.0
 44
0.0
 45
0.0
 46
0.0
 47
0.0
 48
0.0
 49
0.0
140
0.0
141
0.0
142
1.0
143
1.0
 70
   688
 72
     0
 73
     0
 74
     5
  7

 75
    16
147
1.0
148
0.0
149
0.0
100
AcDbLayout
  1
Layout2
 70
     1
 71
     2
 10
0.0
 20
0.0
 11
0.0
 21
0.0
 12
0.0
 22
0.0
 32
0.0
 14
0.0
 24
0.0
 34
0.0
 15
0.0
 25
0.0
 35
0.0
146
0.0
 13
0.0
 23
0.0
 33
0.0
 16
1.0
 26
0.0
 36
0.0
 17
0.0
 27
1.0
 37
0.0
 76
     0
330
23
  0
LAYOUT
  5
22
102
{ACAD_REACTORS
330
1A
102
}
330
1A
100
AcDbPlotSettings
  1

  2
none_device
  4
Letter_(8.50_x_11.00_Inches)
  6

 40
6.35
 41
6.35
 42
6.35000508
 43
6.35000508
 44
215.9
 45
279.4
 46
0.0
 47
0.0
 48
0.0
 49
0.0
140
0.0
141
0.0
142
1.0
143
1.0
 70
  1712
 72
     0
 73
     0
 74
     0
  7

 75
     0
147
1.0
148
0.0
149
0.0
100
AcDbLayout
  1
Model
 70
     1
 71
     0
 10
0.0
 20
0.0
 11
11.0
 21
8.5
 12
0.0
 22
0.0
 32
0.0
 14
0.0
 24
0.0
 34
0.0
 15
11.0
 25
8.5
 35
0.0
146
0.0
 13
0.0
 23
0.0
 33
0.0
 16
1.0
 26
0.0
 36
0.0
 17
0.0
 27
1.0
 37
0.0
 76
     0
330
1F
331
29
  0
MLINESTYLE
  5
18
102
{ACAD_REACTORS
330
17
102
}
330
17
100
AcDbMlineStyle
  2
Standard
 70
     0
  3

 62
   256
 51
90.0
 52
90.0
 71
     2
 49
0.5
 62
   256
  6
BYLAYER
 49
-0.5
 62
   256
  6
BYLAYER
  0
ACDBPLACEHOLDER
  5
F
102
{ACAD_REACTORS
330
E
102
}
330
E
  0
SCALE
  5
48
102
{ACAD_REACTORS
330
47
102
}
330
47
100
AcDbScale
 70
     0
300
1:1
140
1.0
141
1.0
290
     1
  0
SCALE
  5
49
102
{ACAD_REACTORS
330
47
102
}
330
47
100
AcDbScale
 70
     0
300
1:2
140
1.0
141
2.0
290
     0
  0
SCALE
  5
4A
102
{ACAD_REACTORS
330
47
102
}
330
47
100
AcDbScale
 70
     0
300
1:4
140
1.0
141
4.0
290
     0
  0
SCALE
  5
4B
102
{ACAD_REACTORS
330
47
102
}
330
47
100
AcDbScale
 70
     0
300
1:5
140
1.0
141
5.0
290
     0
  0
SCALE
  5
4C
102
{ACAD_REACTORS
330
47
102
}
330
47
100
AcDbScale
 70
     0
300
1:8
140
1.0
141
8.0
290
     0
  0
SCALE
  5
4D
102
{ACAD_REACTORS
330
47
102
}
330
47
100
AcDbScale
 70
     0
300
1:10
140
1.0
141
10.0
290
     0
  0
SCALE
  5
4E
102
{ACAD_REACTORS
330
47
102
}
330
47
100
AcDbScale
 70
     0
300
1:16
140
1.0
141
16.0
290
     0
  0
SCALE
  5
4F
102
{ACAD_REACTORS
330
47
102
}
330
47
100
AcDbScale
 70
     0
300
1:20
140
1.0
141
20.0
290
     0
  0
SCALE
  5
50
102
{ACAD_REACTORS
330
47
102
}
330
47
100
AcDbScale
 70
     0
300
1:30
140
1.0
141
30.0
290
     0
  0
SCALE
  5
51
102
{ACAD_REACTORS
330
47
102
}
330
47
100
AcDbScale
 70
     0
300
1:40
140
1.0
141
40.0
290
     0
  0
SCALE
  5
52
102
{ACAD_REACTORS
330
47
102
}
330
47
100
AcDbScale
 70
     0
300
1:50
140
1.0
141
50.0
290
     0
  0
SCALE
  5
53
102
{ACAD_REACTORS
330
47
102
}
330
47
100
AcDbScale
 70
     0
300
1:100
140
1.0
141
100.0
290
     0
  0
SCALE
  5
54
102
{ACAD_REACTORS
330
47
102
}
330
47
100
AcDbScale
 70
     0
300
2:1
140
2.0
141
1.0
290
     0
  0
SCALE
  5
55
102
{ACAD_REACTORS
330
47
102
}
330
47
100
AcDbScale
 70
     0
300
4:1
140
4.0
141
1.0
290
     0
  0
SCALE
  5
56
102
{ACAD_REACTORS
330
47
102
}
330
47
100
AcDbScale
 70
     0
300
8:1
140
8.0
141
1.0
290
     0
  0
SCALE
  5
57
102
{ACAD_REACTORS
330
47
102
}
330
47
100
AcDbScale
 70
     0
300
10:1
140
10.0
141
1.0
290
     0
  0
SCALE
  5
58
102
{ACAD_REACTORS
330
47
102
}
330
47
100
AcDbScale
 70
     0
300
100:1
140
100.0
141
1.0
290
     0
  0
SCALE
  5
59
102
{ACAD_REACTORS
330
47
102
}
330
47
100
AcDbScale
 70
     0
300
1/128" = 1'-0"
140
0.0078125
141
12.0
290
     0
  0
SCALE
  5
5A
102
{ACAD_REACTORS
330
47
102
}
330
47
100
AcDbScale
 70
     0
300
1/64" = 1'-0"
140
0.015625
141
12.0
290
     0
  0
SCALE
  5
5B
102
{ACAD_REACTORS
330
47
102
}
330
47
100
AcDbScale
 70
     0
300
1/32" = 1'-0"
140
0.03125
141
12.0
290
     0
  0
SCALE
  5
5C
102
{ACAD_REACTORS
330
47
102
}
330
47
100
AcDbScale
 70
     0
300
1/16" = 1'-0"
140
0.0625
141
12.0
290
     0
  0
SCALE
  5
5D
102
{ACAD_REACTORS
330
47
102
}
330
47
100
AcDbScale
 70
     0
300
3/32" = 1'-0"
140
0.09375
141
12.0
290
     0
  0
SCALE
  5
5E
102
{ACAD_REACTORS
330
47
102
}
330
47
100
AcDbScale
 70
     0
300
1/8" = 1'-0"
140
0.125
141
12.0
290
     0
  0
SCALE
  5
5F
102
{ACAD_REACTORS
330
47
102
}
330
47
100
AcDbScale
 70
     0
300
3/16" = 1'-0"
140
0.1875
141
12.0
290
     0
  0
SCALE
  5
60
102
{ACAD_REACTORS
330
47
102
}
330
47
100
AcDbScale
 70
     0
300
1/4" = 1'-0"
140
0.25
141
12.0
290
     0
  0
SCALE
  5
61
102
{ACAD_REACTORS
330
47
102
}
330
47
100
AcDbScale
 70
     0
300
3/8" = 1'-0"
140
0.375
141
12.0
290
     0
  0
SCALE
  5
62
102
{ACAD_REACTORS
330
47
102
}
330
47
100
AcDbScale
 70
     0
300
1/2" = 1'-0"
140
0.5
141
12.0
290
     0
  0
SCALE
  5
63
102
{ACAD_REACTORS
330
47
102
}
330
47
100
AcDbScale
 70
     0
300
3/4" = 1'-0"
140
0.75
141
12.0
290
     0
  0
SCALE
  5
64
102
{ACAD_REACTORS
330
47
102
}
330
47
100
AcDbScale
 70
     0
300
1" = 1'-0"
140
1.0
141
12.0
290
     0
  0
SCALE
  5
65
102
{ACAD_REACTORS
330
47
102
}
330
47
100
AcDbScale
 70
     0
300
1-1/2" = 1'-0"
140
1.5
141
12.0
290
     0
  0
SCALE
  5
66
102
{ACAD_REACTORS
330
47
102
}
330
47
100
AcDbScale
 70
     0
300
3" = 1'-0"
140
3.0
141
12.0
290
     0
  0
SCALE
  5
67
102
{ACAD_REACTORS
330
47
102
}
330
47
100
AcDbScale
 70
     0
300
6" = 1'-0"
140
6.0
141
12.0
290
     0
  0
SCALE
  5
68
102
{ACAD_REACTORS
330
47
102
}
330
47
100
AcDbScale
 70
     0
300
1'-0" = 1'-0"
140
12.0
141
12.0
290
     0
  0
ENDSEC
  0
EOF
